ISO-10303-21;
HEADER;
/* Generated by software containing ST-Developer
 * from STEP Tools, Inc. (www.steptools.com) 
 */

FILE_DESCRIPTION(
/* description */ (''),
/* implementation_level */ '2;1');

FILE_NAME(
/* name */ 
'K:\\Daten\\KOMPONENTEN 2D + 3D\\Rollen\\TR180\\ALFATEC TR 180.0200.st
p',
/* time_stamp */ '2014-02-11T16:18:19+01:00',
/* author */ ('hipp'),
/* organization */ (''),
/* preprocessor_version */ 'ST-DEVELOPER v15.2',
/* originating_system */ 'Autodesk Inventor 2014',
/* authorisation */ '');

FILE_SCHEMA (('AUTOMOTIVE_DESIGN { 1 0 10303 214 3 1 1 }'));
ENDSEC;

DATA;
#10=SHAPE_REPRESENTATION_RELATIONSHIP('SRR','None',#393,#11);
#11=ADVANCED_BREP_SHAPE_REPRESENTATION($,(#216),#384);
#12=STYLED_ITEM($,(#401),#216);
#13=TOROIDAL_SURFACE($,#229,86.,4.);
#14=TOROIDAL_SURFACE($,#236,86.,4.);
#15=CONICAL_SURFACE($,#225,67.0224816220838,45.);
#16=CONICAL_SURFACE($,#234,85.,75.);
#17=CONICAL_SURFACE($,#242,45.1905989232415,30.);
#18=CYLINDRICAL_SURFACE($,#224,30.);
#19=CYLINDRICAL_SURFACE($,#227,67.1474816220838);
#20=CYLINDRICAL_SURFACE($,#232,90.);
#21=CYLINDRICAL_SURFACE($,#246,50.);
#22=CYLINDRICAL_SURFACE($,#250,62.);
#23=FACE_BOUND($,#57,.T.);
#24=FACE_BOUND($,#61,.T.);
#25=FACE_BOUND($,#63,.T.);
#26=FACE_BOUND($,#65,.T.);
#27=FACE_BOUND($,#67,.T.);
#28=FACE_BOUND($,#69,.T.);
#29=FACE_BOUND($,#71,.T.);
#30=FACE_BOUND($,#72,.T.);
#31=FACE_BOUND($,#73,.T.);
#32=FACE_BOUND($,#76,.T.);
#33=FACE_BOUND($,#78,.T.);
#34=FACE_BOUND($,#80,.T.);
#35=FACE_BOUND($,#82,.T.);
#36=FACE_BOUND($,#84,.T.);
#37=FACE_BOUND($,#85,.T.);
#38=FACE_BOUND($,#86,.T.);
#39=FACE_OUTER_BOUND($,#55,.T.);
#40=FACE_OUTER_BOUND($,#56,.T.);
#41=FACE_OUTER_BOUND($,#58,.T.);
#42=FACE_OUTER_BOUND($,#59,.T.);
#43=FACE_OUTER_BOUND($,#60,.T.);
#44=FACE_OUTER_BOUND($,#62,.T.);
#45=FACE_OUTER_BOUND($,#64,.T.);
#46=FACE_OUTER_BOUND($,#66,.T.);
#47=FACE_OUTER_BOUND($,#68,.T.);
#48=FACE_OUTER_BOUND($,#70,.T.);
#49=FACE_OUTER_BOUND($,#74,.T.);
#50=FACE_OUTER_BOUND($,#75,.T.);
#51=FACE_OUTER_BOUND($,#77,.T.);
#52=FACE_OUTER_BOUND($,#79,.T.);
#53=FACE_OUTER_BOUND($,#81,.T.);
#54=FACE_OUTER_BOUND($,#83,.T.);
#55=EDGE_LOOP($,(#149,#150));
#56=EDGE_LOOP($,(#151));
#57=EDGE_LOOP($,(#152,#153,#154,#155));
#58=EDGE_LOOP($,(#156,#157));
#59=EDGE_LOOP($,(#158,#159,#160,#161));
#60=EDGE_LOOP($,(#162));
#61=EDGE_LOOP($,(#163));
#62=EDGE_LOOP($,(#164));
#63=EDGE_LOOP($,(#165));
#64=EDGE_LOOP($,(#166));
#65=EDGE_LOOP($,(#167));
#66=EDGE_LOOP($,(#168));
#67=EDGE_LOOP($,(#169));
#68=EDGE_LOOP($,(#170));
#69=EDGE_LOOP($,(#171));
#70=EDGE_LOOP($,(#172));
#71=EDGE_LOOP($,(#173));
#72=EDGE_LOOP($,(#174));
#73=EDGE_LOOP($,(#175));
#74=EDGE_LOOP($,(#176));
#75=EDGE_LOOP($,(#177));
#76=EDGE_LOOP($,(#178));
#77=EDGE_LOOP($,(#179));
#78=EDGE_LOOP($,(#180));
#79=EDGE_LOOP($,(#181));
#80=EDGE_LOOP($,(#182));
#81=EDGE_LOOP($,(#183));
#82=EDGE_LOOP($,(#184));
#83=EDGE_LOOP($,(#185));
#84=EDGE_LOOP($,(#186));
#85=EDGE_LOOP($,(#187));
#86=EDGE_LOOP($,(#188));
#87=LINE($,#331,#91);
#88=LINE($,#336,#92);
#89=LINE($,#338,#93);
#90=LINE($,#339,#94);
#91=VECTOR($,#258,36.);
#92=VECTOR($,#263,60.);
#93=VECTOR($,#264,60.);
#94=VECTOR($,#265,36.);
#95=CIRCLE($,#219,30.);
#96=CIRCLE($,#221,66.8974816220838);
#97=CIRCLE($,#223,30.);
#98=CIRCLE($,#226,67.1474816220838);
#99=CIRCLE($,#228,67.1474816220838);
#100=CIRCLE($,#230,90.);
#101=CIRCLE($,#231,87.0352761804101);
#102=CIRCLE($,#233,90.);
#103=CIRCLE($,#235,80.);
#104=CIRCLE($,#237,86.);
#105=CIRCLE($,#239,62.);
#106=CIRCLE($,#241,42.881197846483);
#107=CIRCLE($,#243,47.5);
#108=CIRCLE($,#245,50.);
#109=CIRCLE($,#247,50.);
#110=CIRCLE($,#249,62.);
#111=VERTEX_POINT($,#328);
#112=VERTEX_POINT($,#329);
#113=VERTEX_POINT($,#333);
#114=VERTEX_POINT($,#335);
#115=VERTEX_POINT($,#337);
#116=VERTEX_POINT($,#344);
#117=VERTEX_POINT($,#347);
#118=VERTEX_POINT($,#350);
#119=VERTEX_POINT($,#352);
#120=VERTEX_POINT($,#355);
#121=VERTEX_POINT($,#358);
#122=VERTEX_POINT($,#361);
#123=VERTEX_POINT($,#364);
#124=VERTEX_POINT($,#367);
#125=VERTEX_POINT($,#370);
#126=VERTEX_POINT($,#373);
#127=VERTEX_POINT($,#376);
#128=VERTEX_POINT($,#379);
#129=EDGE_CURVE($,#111,#112,#95,.T.);
#130=EDGE_CURVE($,#112,#111,#87,.T.);
#131=EDGE_CURVE($,#113,#113,#96,.T.);
#132=EDGE_CURVE($,#114,#112,#88,.T.);
#133=EDGE_CURVE($,#111,#115,#89,.T.);
#134=EDGE_CURVE($,#115,#114,#90,.T.);
#135=EDGE_CURVE($,#114,#115,#97,.T.);
#136=EDGE_CURVE($,#116,#116,#98,.T.);
#137=EDGE_CURVE($,#117,#117,#99,.T.);
#138=EDGE_CURVE($,#118,#118,#100,.T.);
#139=EDGE_CURVE($,#119,#119,#101,.T.);
#140=EDGE_CURVE($,#120,#120,#102,.T.);
#141=EDGE_CURVE($,#121,#121,#103,.T.);
#142=EDGE_CURVE($,#122,#122,#104,.T.);
#143=EDGE_CURVE($,#123,#123,#105,.T.);
#144=EDGE_CURVE($,#124,#124,#106,.T.);
#145=EDGE_CURVE($,#125,#125,#107,.T.);
#146=EDGE_CURVE($,#126,#126,#108,.T.);
#147=EDGE_CURVE($,#127,#127,#109,.T.);
#148=EDGE_CURVE($,#128,#128,#110,.T.);
#149=ORIENTED_EDGE($,*,*,#129,.F.);
#150=ORIENTED_EDGE($,*,*,#130,.F.);
#151=ORIENTED_EDGE($,*,*,#131,.F.);
#152=ORIENTED_EDGE($,*,*,#132,.T.);
#153=ORIENTED_EDGE($,*,*,#130,.T.);
#154=ORIENTED_EDGE($,*,*,#133,.T.);
#155=ORIENTED_EDGE($,*,*,#134,.T.);
#156=ORIENTED_EDGE($,*,*,#134,.F.);
#157=ORIENTED_EDGE($,*,*,#135,.F.);
#158=ORIENTED_EDGE($,*,*,#132,.F.);
#159=ORIENTED_EDGE($,*,*,#135,.T.);
#160=ORIENTED_EDGE($,*,*,#133,.F.);
#161=ORIENTED_EDGE($,*,*,#129,.T.);
#162=ORIENTED_EDGE($,*,*,#136,.T.);
#163=ORIENTED_EDGE($,*,*,#131,.T.);
#164=ORIENTED_EDGE($,*,*,#137,.T.);
#165=ORIENTED_EDGE($,*,*,#136,.F.);
#166=ORIENTED_EDGE($,*,*,#138,.T.);
#167=ORIENTED_EDGE($,*,*,#139,.T.);
#168=ORIENTED_EDGE($,*,*,#140,.F.);
#169=ORIENTED_EDGE($,*,*,#138,.F.);
#170=ORIENTED_EDGE($,*,*,#141,.F.);
#171=ORIENTED_EDGE($,*,*,#139,.F.);
#172=ORIENTED_EDGE($,*,*,#142,.T.);
#173=ORIENTED_EDGE($,*,*,#140,.T.);
#174=ORIENTED_EDGE($,*,*,#143,.T.);
#175=ORIENTED_EDGE($,*,*,#142,.F.);
#176=ORIENTED_EDGE($,*,*,#144,.F.);
#177=ORIENTED_EDGE($,*,*,#145,.F.);
#178=ORIENTED_EDGE($,*,*,#144,.T.);
#179=ORIENTED_EDGE($,*,*,#146,.F.);
#180=ORIENTED_EDGE($,*,*,#145,.T.);
#181=ORIENTED_EDGE($,*,*,#147,.F.);
#182=ORIENTED_EDGE($,*,*,#146,.T.);
#183=ORIENTED_EDGE($,*,*,#148,.F.);
#184=ORIENTED_EDGE($,*,*,#147,.T.);
#185=ORIENTED_EDGE($,*,*,#143,.F.);
#186=ORIENTED_EDGE($,*,*,#148,.T.);
#187=ORIENTED_EDGE($,*,*,#137,.F.);
#188=ORIENTED_EDGE($,*,*,#141,.T.);
#189=PLANE($,#218);
#190=PLANE($,#220);
#191=PLANE($,#222);
#192=PLANE($,#238);
#193=PLANE($,#240);
#194=PLANE($,#244);
#195=PLANE($,#248);
#196=PLANE($,#251);
#197=ADVANCED_FACE($,(#39),#189,.F.);
#198=ADVANCED_FACE($,(#40,#23),#190,.T.);
#199=ADVANCED_FACE($,(#41),#191,.F.);
#200=ADVANCED_FACE($,(#42),#18,.T.);
#201=ADVANCED_FACE($,(#43,#24),#15,.T.);
#202=ADVANCED_FACE($,(#44,#25),#19,.T.);
#203=ADVANCED_FACE($,(#45,#26),#13,.T.);
#204=ADVANCED_FACE($,(#46,#27),#20,.T.);
#205=ADVANCED_FACE($,(#47,#28),#16,.T.);
#206=ADVANCED_FACE($,(#48,#29),#14,.T.);
#207=ADVANCED_FACE($,(#30,#31),#192,.T.);
#208=ADVANCED_FACE($,(#49),#193,.T.);
#209=ADVANCED_FACE($,(#50,#32),#17,.T.);
#210=ADVANCED_FACE($,(#51,#33),#194,.T.);
#211=ADVANCED_FACE($,(#52,#34),#21,.T.);
#212=ADVANCED_FACE($,(#53,#35),#195,.T.);
#213=ADVANCED_FACE($,(#54,#36),#22,.T.);
#214=ADVANCED_FACE($,(#37,#38),#196,.T.);
#215=CLOSED_SHELL($,(#197,#198,#199,#200,#201,#202,#203,#204,#205,#206,
#207,#208,#209,#210,#211,#212,#213,#214));
#216=MANIFOLD_SOLID_BREP('Volumenk\X\F6rper1',#215);
#217=AXIS2_PLACEMENT_3D('placement',#326,#252,#253);
#218=AXIS2_PLACEMENT_3D($,#327,#254,#255);
#219=AXIS2_PLACEMENT_3D($,#330,#256,#257);
#220=AXIS2_PLACEMENT_3D($,#332,#259,#260);
#221=AXIS2_PLACEMENT_3D($,#334,#261,#262);
#222=AXIS2_PLACEMENT_3D($,#340,#266,#267);
#223=AXIS2_PLACEMENT_3D($,#341,#268,#269);
#224=AXIS2_PLACEMENT_3D($,#342,#270,#271);
#225=AXIS2_PLACEMENT_3D($,#343,#272,#273);
#226=AXIS2_PLACEMENT_3D($,#345,#274,#275);
#227=AXIS2_PLACEMENT_3D($,#346,#276,#277);
#228=AXIS2_PLACEMENT_3D($,#348,#278,#279);
#229=AXIS2_PLACEMENT_3D($,#349,#280,#281);
#230=AXIS2_PLACEMENT_3D($,#351,#282,#283);
#231=AXIS2_PLACEMENT_3D($,#353,#284,#285);
#232=AXIS2_PLACEMENT_3D($,#354,#286,#287);
#233=AXIS2_PLACEMENT_3D($,#356,#288,#289);
#234=AXIS2_PLACEMENT_3D($,#357,#290,#291);
#235=AXIS2_PLACEMENT_3D($,#359,#292,#293);
#236=AXIS2_PLACEMENT_3D($,#360,#294,#295);
#237=AXIS2_PLACEMENT_3D($,#362,#296,#297);
#238=AXIS2_PLACEMENT_3D($,#363,#298,#299);
#239=AXIS2_PLACEMENT_3D($,#365,#300,#301);
#240=AXIS2_PLACEMENT_3D($,#366,#302,#303);
#241=AXIS2_PLACEMENT_3D($,#368,#304,#305);
#242=AXIS2_PLACEMENT_3D($,#369,#306,#307);
#243=AXIS2_PLACEMENT_3D($,#371,#308,#309);
#244=AXIS2_PLACEMENT_3D($,#372,#310,#311);
#245=AXIS2_PLACEMENT_3D($,#374,#312,#313);
#246=AXIS2_PLACEMENT_3D($,#375,#314,#315);
#247=AXIS2_PLACEMENT_3D($,#377,#316,#317);
#248=AXIS2_PLACEMENT_3D($,#378,#318,#319);
#249=AXIS2_PLACEMENT_3D($,#380,#320,#321);
#250=AXIS2_PLACEMENT_3D($,#381,#322,#323);
#251=AXIS2_PLACEMENT_3D($,#382,#324,#325);
#252=DIRECTION('axis',(0.,0.,1.));
#253=DIRECTION('refdir',(1.,0.,0.));
#254=DIRECTION('center_axis',(0.,1.,0.));
#255=DIRECTION('ref_axis',(0.,0.,1.));
#256=DIRECTION('center_axis',(0.,1.,0.));
#257=DIRECTION('ref_axis',(0.8,0.,-0.6));
#258=DIRECTION($,(0.,0.,1.));
#259=DIRECTION('center_axis',(1.,0.,0.));
#260=DIRECTION('ref_axis',(0.,0.,-1.));
#261=DIRECTION('center_axis',(-1.,0.,0.));
#262=DIRECTION('ref_axis',(0.,-1.,0.));
#263=DIRECTION($,(0.,-1.,0.));
#264=DIRECTION($,(0.,1.,0.));
#265=DIRECTION($,(0.,0.,-1.));
#266=DIRECTION('center_axis',(0.,-1.,0.));
#267=DIRECTION('ref_axis',(0.,0.,-1.));
#268=DIRECTION('center_axis',(0.,-1.,0.));
#269=DIRECTION('ref_axis',(1.,0.,0.));
#270=DIRECTION('center_axis',(0.,1.,0.));
#271=DIRECTION('ref_axis',(1.,0.,0.));
#272=DIRECTION('center_axis',(-1.,0.,0.));
#273=DIRECTION('ref_axis',(0.,-1.,0.));
#274=DIRECTION('center_axis',(1.,0.,0.));
#275=DIRECTION('ref_axis',(0.,-1.,0.));
#276=DIRECTION('center_axis',(1.,0.,0.));
#277=DIRECTION('ref_axis',(0.,1.,0.));
#278=DIRECTION('center_axis',(1.,0.,0.));
#279=DIRECTION('ref_axis',(0.,1.,0.));
#280=DIRECTION('center_axis',(1.,0.,0.));
#281=DIRECTION('ref_axis',(0.,0.,-1.));
#282=DIRECTION('center_axis',(1.,0.,0.));
#283=DIRECTION('ref_axis',(0.,-1.,1.22464679914735E-016));
#284=DIRECTION('center_axis',(-1.,0.,0.));
#285=DIRECTION('ref_axis',(0.,-1.,0.));
#286=DIRECTION('center_axis',(1.,0.,0.));
#287=DIRECTION('ref_axis',(0.,1.,0.));
#288=DIRECTION('center_axis',(-1.,0.,0.));
#289=DIRECTION('ref_axis',(0.,-1.,1.22464679914735E-016));
#290=DIRECTION('center_axis',(-1.,0.,0.));
#291=DIRECTION('ref_axis',(0.,1.,0.));
#292=DIRECTION('center_axis',(1.,0.,0.));
#293=DIRECTION('ref_axis',(0.,1.,0.));
#294=DIRECTION('center_axis',(1.,0.,0.));
#295=DIRECTION('ref_axis',(0.,0.,-1.));
#296=DIRECTION('center_axis',(1.,0.,0.));
#297=DIRECTION('ref_axis',(0.,-1.,1.22464679914735E-016));
#298=DIRECTION('center_axis',(-1.,0.,0.));
#299=DIRECTION('ref_axis',(0.,0.,1.));
#300=DIRECTION('center_axis',(1.,0.,0.));
#301=DIRECTION('ref_axis',(0.,1.,0.));
#302=DIRECTION('center_axis',(-1.,0.,0.));
#303=DIRECTION('ref_axis',(0.,0.,1.));
#304=DIRECTION('center_axis',(1.,0.,0.));
#305=DIRECTION('ref_axis',(0.,1.,0.));
#306=DIRECTION('center_axis',(1.,0.,0.));
#307=DIRECTION('ref_axis',(0.,1.,0.));
#308=DIRECTION('center_axis',(1.,0.,0.));
#309=DIRECTION('ref_axis',(0.,1.,0.));
#310=DIRECTION('center_axis',(-1.,0.,0.));
#311=DIRECTION('ref_axis',(0.,0.,1.));
#312=DIRECTION('center_axis',(1.,0.,0.));
#313=DIRECTION('ref_axis',(0.,1.,0.));
#314=DIRECTION('center_axis',(1.,0.,0.));
#315=DIRECTION('ref_axis',(0.,1.,0.));
#316=DIRECTION('center_axis',(1.,0.,0.));
#317=DIRECTION('ref_axis',(0.,1.,0.));
#318=DIRECTION('center_axis',(-1.,0.,0.));
#319=DIRECTION('ref_axis',(0.,0.,1.));
#320=DIRECTION('center_axis',(1.,0.,0.));
#321=DIRECTION('ref_axis',(0.,1.,0.));
#322=DIRECTION('center_axis',(1.,0.,0.));
#323=DIRECTION('ref_axis',(0.,1.,0.));
#324=DIRECTION('center_axis',(1.,0.,0.));
#325=DIRECTION('ref_axis',(0.,0.,-1.));
#326=CARTESIAN_POINT('',(0.,0.,0.));
#327=CARTESIAN_POINT('Origin',(91.5504358297804,-30.,-1.24390275216241E-014));
#328=CARTESIAN_POINT('',(89.7,-30.,18.));
#329=CARTESIAN_POINT('',(89.7,-30.,-18.));
#330=CARTESIAN_POINT('Origin',(65.7,-30.,-1.20688942055972E-014));
#331=CARTESIAN_POINT($,(89.7,-30.,-6.21951376081203E-015));
#332=CARTESIAN_POINT('Origin',(89.7,33.5737408110419,0.));
#333=CARTESIAN_POINT('',(89.7,66.8974816220838,-8.19257867395038E-015));
#334=CARTESIAN_POINT('Origin',(89.7,0.,0.));
#335=CARTESIAN_POINT('',(89.7,30.,-18.));
#336=CARTESIAN_POINT($,(89.7,0.,-18.));
#337=CARTESIAN_POINT('',(89.7,30.,18.));
#338=CARTESIAN_POINT($,(89.7,0.,18.));
#339=CARTESIAN_POINT($,(89.7,30.,-6.03444710279858E-015));
#340=CARTESIAN_POINT('Origin',(65.7,30.,-1.20688942055972E-014));
#341=CARTESIAN_POINT('Origin',(65.7,30.,-1.20688942055972E-014));
#342=CARTESIAN_POINT('Origin',(65.7,0.,-1.20688942055972E-014));
#343=CARTESIAN_POINT('Origin',(89.575,0.,0.));
#344=CARTESIAN_POINT('',(89.45,67.1474816220838,8.22319484392907E-015));
#345=CARTESIAN_POINT('Origin',(89.45,0.,0.));
#346=CARTESIAN_POINT('Origin',(89.45,0.,0.));
#347=CARTESIAN_POINT('',(89.2,67.1474816220838,0.));
#348=CARTESIAN_POINT('Origin',(89.2,0.,0.));
#349=CARTESIAN_POINT('Origin',(83.4512001237729,0.,0.));
#350=CARTESIAN_POINT('',(83.4512001237729,90.,0.));
#351=CARTESIAN_POINT('Origin',(83.4512001237729,0.,0.));
#352=CARTESIAN_POINT('',(87.3149034289292,87.0352761804101,-2.1317494477449E-014));
#353=CARTESIAN_POINT('Origin',(87.3149034289292,0.,-1.06587472387245E-014));
#354=CARTESIAN_POINT('Origin',(59.2102540378444,0.,0.));
#355=CARTESIAN_POINT('',(35.9,90.,-2.20436423846524E-014));
#356=CARTESIAN_POINT('Origin',(35.9,0.,0.));
#357=CARTESIAN_POINT('Origin',(87.8602540378444,0.,0.));
#358=CARTESIAN_POINT('',(89.2,80.,0.));
#359=CARTESIAN_POINT('Origin',(89.2,0.,0.));
#360=CARTESIAN_POINT('Origin',(35.9,0.,0.));
#361=CARTESIAN_POINT('',(31.9,86.,0.));
#362=CARTESIAN_POINT('Origin',(31.9,0.,0.));
#363=CARTESIAN_POINT('Origin',(31.9,76.,0.));
#364=CARTESIAN_POINT('',(31.9,62.,0.));
#365=CARTESIAN_POINT('Origin',(31.9,0.,0.));
#366=CARTESIAN_POINT('Origin',(-4.00906889875133E-015,21.4405989232415,
0.));
#367=CARTESIAN_POINT('',(-8.01813779750267E-015,42.881197846483,0.));
#368=CARTESIAN_POINT('Origin',(0.,0.,0.));
#369=CARTESIAN_POINT('Origin',(3.99999999999999,0.,0.));
#370=CARTESIAN_POINT('',(7.99999999999999,47.5,0.));
#371=CARTESIAN_POINT('Origin',(7.99999999999999,0.,0.));
#372=CARTESIAN_POINT('Origin',(7.99999999999999,48.75,0.));
#373=CARTESIAN_POINT('',(7.99999999999999,50.,0.));
#374=CARTESIAN_POINT('Origin',(7.99999999999999,0.,0.));
#375=CARTESIAN_POINT('Origin',(13.7,0.,0.));
#376=CARTESIAN_POINT('',(19.4,50.,0.));
#377=CARTESIAN_POINT('Origin',(19.4,0.,0.));
#378=CARTESIAN_POINT('Origin',(19.4,56.,0.));
#379=CARTESIAN_POINT('',(19.4,62.,0.));
#380=CARTESIAN_POINT('Origin',(19.4,0.,0.));
#381=CARTESIAN_POINT('Origin',(25.65,0.,0.));
#382=CARTESIAN_POINT('Origin',(89.2,73.5737408110419,0.));
#383=UNCERTAINTY_MEASURE_WITH_UNIT(LENGTH_MEASURE(0.01),#385,
'DISTANCE_ACCURACY_VALUE',
'Maximum model space distance between geometric entities at asserted c
onnectivities');
#384=(
GEOMETRIC_REPRESENTATION_CONTEXT(3)
GLOBAL_UNCERTAINTY_ASSIGNED_CONTEXT((#383))
GLOBAL_UNIT_ASSIGNED_CONTEXT((#385,#388,#386))
REPRESENTATION_CONTEXT('','3D')
);
#385=(
LENGTH_UNIT()
NAMED_UNIT(*)
SI_UNIT(.MILLI.,.METRE.)
);
#386=(
NAMED_UNIT(*)
SI_UNIT($,.STERADIAN.)
SOLID_ANGLE_UNIT()
);
#387=DIMENSIONAL_EXPONENTS(0.,0.,0.,0.,0.,0.,0.);
#388=(
CONVERSION_BASED_UNIT('degree',#390)
NAMED_UNIT(#387)
PLANE_ANGLE_UNIT()
);
#389=(
NAMED_UNIT(*)
PLANE_ANGLE_UNIT()
SI_UNIT($,.RADIAN.)
);
#390=PLANE_ANGLE_MEASURE_WITH_UNIT(PLANE_ANGLE_MEASURE(0.01745329252),#389);
#391=SHAPE_DEFINITION_REPRESENTATION(#392,#393);
#392=PRODUCT_DEFINITION_SHAPE('',$,#395);
#393=SHAPE_REPRESENTATION('',(#217),#384);
#394=PRODUCT_DEFINITION_CONTEXT('3D Mechanical Parts',#398,'design');
#395=PRODUCT_DEFINITION('ALFATEC TR 180.0200','ALFATEC TR 180.0200',#396,
#394);
#396=PRODUCT_DEFINITION_FORMATION('',$,#400);
#397=APPLICATION_PROTOCOL_DEFINITION('international standard',
'automotive_design',2009,#398);
#398=APPLICATION_CONTEXT(
'Core Data for Automotive Mechanical Design Process');
#399=PRODUCT_CONTEXT('3D Mechanical Parts',#398,'mechanical');
#400=PRODUCT('ALFATEC TR 180.0200','ALFATEC TR 180.0200',$,(#399));
#401=PRESENTATION_STYLE_ASSIGNMENT((#402));
#402=SURFACE_STYLE_USAGE(.BOTH.,#403);
#403=SURFACE_SIDE_STYLE($,(#404));
#404=SURFACE_STYLE_FILL_AREA(#405);
#405=FILL_AREA_STYLE($,(#406));
#406=FILL_AREA_STYLE_COLOUR($,#407);
#407=COLOUR_RGB('',1.,1.,1.);
ENDSEC;
END-ISO-10303-21;
