ISO-10303-21;
HEADER;
FILE_DESCRIPTION (( 'STEP AP214' ),
    '1' );
FILE_NAME ('CWE-006-_-h7-1000-ltk.step',
    '2020-09-09T10:18:52',
    ( '' ),
    ( '' ),
    'SwSTEP 2.0',
    'SolidWorks 2010',
    '' );
FILE_SCHEMA (( 'AUTOMOTIVE_DESIGN' ));
ENDSEC;

DATA;
#1 = STYLED_ITEM ( 'NONE', ( #132 ), #93 ) ;
#2 = EDGE_CURVE ( 'NONE', #50, #49, #100, .T. ) ;
#3 = STYLED_ITEM ( 'NONE', ( #96 ), #90 ) ;
#4 = PRESENTATION_LAYER_ASSIGNMENT (  '', '', ( #1 ) ) ;
#5 = AXIS2_PLACEMENT_3D ( 'NONE', #80, #81, #82 ) ;
#6 = EDGE_CURVE ( 'NONE', #48, #50, #101, .T. ) ;
#7 = EDGE_CURVE ( 'NONE', #48, #51, #107, .T. ) ;
#8 = PRODUCT_DEFINITION_FORMATION_WITH_SPECIFIED_SOURCE ( 'ANY', '', #88, .NOT_KNOWN. ) ;
#9 = MECHANICAL_DESIGN_GEOMETRIC_PRESENTATION_REPRESENTATION (  '', ( #1 ), #133 ) ;
#10 = PRESENTATION_LAYER_ASSIGNMENT (  '', '', ( #3 ) ) ;
#11 = AXIS2_PLACEMENT_3D ( 'NONE', #39, #61, #63 ) ;
#12 = AXIS2_PLACEMENT_3D ( 'NONE', #43, #42, #41 ) ;
#13 = AXIS2_PLACEMENT_3D ( 'NONE', #52, #47, #46 ) ;
#14 = MECHANICAL_DESIGN_GEOMETRIC_PRESENTATION_REPRESENTATION (  '', ( #3 ), #124 ) ;
#15 = EDGE_CURVE ( 'NONE', #51, #48, #110, .T. ) ;
#16 = EDGE_CURVE ( 'NONE', #49, #50, #121, .T. ) ;
#17 = AXIS2_PLACEMENT_3D ( 'NONE', #40, #38, #37 ) ;
#18 = AXIS2_PLACEMENT_3D ( 'NONE', #56, #65, #68 ) ;
#19 = EDGE_CURVE ( 'NONE', #51, #49, #95, .T. ) ;
#20 = PRODUCT_DEFINITION ( 'UNKNOWN', '', #8, #139 ) ;
#21 = AXIS2_PLACEMENT_3D ( 'NONE', #45, #35, #34 ) ;
#22 = PRODUCT_RELATED_PRODUCT_CATEGORY ( 'part', '', ( #88 ) ) ;
#23 = AXIS2_PLACEMENT_3D ( 'NONE', #55, #54, #57 ) ;
#24 = AXIS2_PLACEMENT_3D ( 'NONE', #62, #71, #72 ) ;
#25 = CARTESIAN_POINT ( 'NONE',  ( 2.999999999999999100, 0.0000000000000000000, 18.26174999999999200 ) ) ;
#26 =( NAMED_UNIT ( * ) PLANE_ANGLE_UNIT ( ) SI_UNIT ( $, .RADIAN. ) );
#27 = FILL_AREA_STYLE ('',( #28 ) ) ;
#28 = FILL_AREA_STYLE_COLOUR ( '', #97 ) ;
#29 = CARTESIAN_POINT ( 'NONE',  ( -2.999999999999999100, 3.673940397442058900E-016, -1000.000000000000000 ) ) ;
#30 = CARTESIAN_POINT ( 'NONE',  ( -2.999999999999999100, 3.673940397442058900E-016, 0.0000000000000000000 ) ) ;
#31 = DIRECTION ( 'NONE',  ( -0.0000000000000000000, -0.0000000000000000000, 1.000000000000000000 ) ) ;
#32 = CARTESIAN_POINT ( 'NONE',  ( -2.999999999999999100, 3.673940397442058900E-016, 18.26174999999999200 ) ) ;
#33 = CARTESIAN_POINT ( 'NONE',  ( 2.999999999999999100, 0.0000000000000000000, 0.0000000000000000000 ) ) ;
#34 = DIRECTION ( 'NONE',  ( 1.000000000000000000, 0.0000000000000000000, 0.0000000000000000000 ) ) ;
#35 = DIRECTION ( 'NONE',  ( -0.0000000000000000000, -0.0000000000000000000, 1.000000000000000000 ) ) ;
#36 = CARTESIAN_POINT ( 'NONE',  ( 2.999999999999999100, 0.0000000000000000000, -1000.000000000000000 ) ) ;
#37 = DIRECTION ( 'NONE',  ( 1.000000000000000000, 0.0000000000000000000, 0.0000000000000000000 ) ) ;
#38 = DIRECTION ( 'NONE',  ( -0.0000000000000000000, -0.0000000000000000000, 1.000000000000000000 ) ) ;
#39 = CARTESIAN_POINT ( 'NONE',  ( 0.0000000000000000000, 0.0000000000000000000, 18.26174999999999200 ) ) ;
#40 = CARTESIAN_POINT ( 'NONE',  ( 0.0000000000000000000, 0.0000000000000000000, -1000.000000000000000 ) ) ;
#41 = DIRECTION ( 'NONE',  ( 1.000000000000000000, 0.0000000000000000000, 0.0000000000000000000 ) ) ;
#42 = DIRECTION ( 'NONE',  ( -0.0000000000000000000, -0.0000000000000000000, 1.000000000000000000 ) ) ;
#43 = CARTESIAN_POINT ( 'NONE',  ( 0.0000000000000000000, 0.0000000000000000000, -1000.000000000000000 ) ) ;
#44 = DIRECTION ( 'NONE',  ( -0.0000000000000000000, -0.0000000000000000000, 1.000000000000000000 ) ) ;
#45 = CARTESIAN_POINT ( 'NONE',  ( 0.0000000000000000000, 0.0000000000000000000, 0.0000000000000000000 ) ) ;
#46 = DIRECTION ( 'NONE',  ( 1.000000000000000000, 0.0000000000000000000, 0.0000000000000000000 ) ) ;
#47 = DIRECTION ( 'NONE',  ( -0.0000000000000000000, -0.0000000000000000000, 1.000000000000000000 ) ) ;
#48 = VERTEX_POINT ( 'NONE', #36 ) ;
#49 = VERTEX_POINT ( 'NONE', #30 ) ;
#50 = VERTEX_POINT ( 'NONE', #33 ) ;
#51 = VERTEX_POINT ( 'NONE', #29 ) ;
#52 = CARTESIAN_POINT ( 'NONE',  ( 0.0000000000000000000, 0.0000000000000000000, 0.0000000000000000000 ) ) ;
#53 =( NAMED_UNIT ( * ) SI_UNIT ( $, .STERADIAN. ) SOLID_ANGLE_UNIT ( ) );
#54 = DIRECTION ( 'NONE',  ( -0.0000000000000000000, -0.0000000000000000000, 1.000000000000000000 ) ) ;
#55 = CARTESIAN_POINT ( 'NONE',  ( 0.0000000000000000000, 0.0000000000000000000, 18.26174999999999200 ) ) ;
#56 = CARTESIAN_POINT ( 'NONE',  ( 0.0000000000000000000, 2.999999999999999100, -1000.000000000000000 ) ) ;
#57 = DIRECTION ( 'NONE',  ( 1.000000000000000000, 0.0000000000000000000, 0.0000000000000000000 ) ) ;
#58 = SURFACE_SIDE_STYLE ('',( #117 ) ) ;
#59 =( LENGTH_UNIT ( ) NAMED_UNIT ( * ) SI_UNIT ( .MILLI., .METRE. ) );
#60 = SURFACE_STYLE_USAGE ( .BOTH. , #58 ) ;
#61 = DIRECTION ( 'NONE',  ( -0.0000000000000000000, -0.0000000000000000000, 1.000000000000000000 ) ) ;
#62 = CARTESIAN_POINT ( 'NONE',  ( 0.0000000000000000000, 2.999999999999999100, 0.0000000000000000000 ) ) ;
#63 = DIRECTION ( 'NONE',  ( 1.000000000000000000, 0.0000000000000000000, 0.0000000000000000000 ) ) ;
#64 = PLANE ( 'NONE',  #24 ) ;
#65 = DIRECTION ( 'NONE',  ( 0.0000000000000000000, -0.0000000000000000000, 1.000000000000000000 ) ) ;
#66 = FILL_AREA_STYLE_COLOUR ( '', #130 ) ;
#67 = PLANE ( 'NONE',  #18 ) ;
#68 = DIRECTION ( 'NONE',  ( 1.000000000000000000, 0.0000000000000000000, 0.0000000000000000000 ) ) ;
#69 =( LENGTH_UNIT ( ) NAMED_UNIT ( * ) SI_UNIT ( .MILLI., .METRE. ) );
#70 =( NAMED_UNIT ( * ) PLANE_ANGLE_UNIT ( ) SI_UNIT ( $, .RADIAN. ) );
#71 = DIRECTION ( 'NONE',  ( 0.0000000000000000000, 0.0000000000000000000, -1.000000000000000000 ) ) ;
#72 = DIRECTION ( 'NONE',  ( -1.000000000000000000, 0.0000000000000000000, -0.0000000000000000000 ) ) ;
#73 =( NAMED_UNIT ( * ) SI_UNIT ( $, .STERADIAN. ) SOLID_ANGLE_UNIT ( ) );
#74 = FILL_AREA_STYLE ('',( #66 ) ) ;
#75 = SURFACE_SIDE_STYLE ('',( #131 ) ) ;
#76 = SURFACE_STYLE_USAGE ( .BOTH. , #75 ) ;
#77 =( LENGTH_UNIT ( ) NAMED_UNIT ( * ) SI_UNIT ( .MILLI., .METRE. ) );
#78 =( NAMED_UNIT ( * ) PLANE_ANGLE_UNIT ( ) SI_UNIT ( $, .RADIAN. ) );
#79 =( NAMED_UNIT ( * ) SI_UNIT ( $, .STERADIAN. ) SOLID_ANGLE_UNIT ( ) );
#80 = CARTESIAN_POINT ( 'NONE',  ( 0.0000000000000000000, 0.0000000000000000000, 0.0000000000000000000 ) ) ;
#81 = DIRECTION ( 'NONE',  ( 0.0000000000000000000, 0.0000000000000000000, 1.000000000000000000 ) ) ;
#82 = DIRECTION ( 'NONE',  ( 1.000000000000000000, 0.0000000000000000000, 0.0000000000000000000 ) ) ;
#83 = APPLICATION_CONTEXT ( 'automotive_design' ) ;
#84 = APPLICATION_PROTOCOL_DEFINITION ( 'draft international standard', 'automotive_design', 1998, #83 ) ;
#85 = PRODUCT_CONTEXT ( 'NONE', #83, 'mechanical' ) ;
#86 = APPLICATION_CONTEXT ( 'automotive_design' ) ;
#87 = APPLICATION_PROTOCOL_DEFINITION ( 'draft international standard', 'automotive_design', 1998, #86 ) ;
#88 = PRODUCT ( 'CWE-006-_-h7-1000-ltk', 'CWE-006-_-h7-1000-ltk', '', ( #85 ) ) ;
#89 = UNCERTAINTY_MEASURE_WITH_UNIT (LENGTH_MEASURE( 1.000000000000000100E-005 ), #59, 'distance_accuracy_value', 'NONE');
#90 = MANIFOLD_SOLID_BREP ( 'body', #113 ) ;
#91 = UNCERTAINTY_MEASURE_WITH_UNIT (LENGTH_MEASURE( 1.000000000000000100E-005 ), #69, 'distance_accuracy_value', 'NONE');
#92 = UNCERTAINTY_MEASURE_WITH_UNIT (LENGTH_MEASURE( 1.000000000000000100E-005 ), #77, 'distance_accuracy_value', 'NONE');
#93 = ADVANCED_BREP_SHAPE_REPRESENTATION ( 'CWE-006-_-h7-1000-ltk', ( #90, #5 ), #129 ) ;
#94 = VECTOR ( 'NONE', #31, 1000.000000000000000 ) ;
#95 = LINE ( 'NONE', #32, #94 ) ;
#96 = PRESENTATION_STYLE_ASSIGNMENT (( #60 ) ) ;
#97 = COLOUR_RGB ( '',0.7529411764705882200, 0.7529411764705882200, 0.7529411764705882200 ) ;
#98 = ORIENTED_EDGE ( 'NONE', *, *, #6, .F. ) ;
#99 = VECTOR ( 'NONE', #44, 1000.000000000000000 ) ;
#100 = CIRCLE ( 'NONE', #13, 2.999999999999999100 ) ;
#101 = LINE ( 'NONE', #25, #99 ) ;
#102 = EDGE_LOOP ( 'NONE', ( #105, #106, #103, #98 ) ) ;
#103 = ORIENTED_EDGE ( 'NONE', *, *, #2, .F. ) ;
#104 = ORIENTED_EDGE ( 'NONE', *, *, #2, .T. ) ;
#105 = ORIENTED_EDGE ( 'NONE', *, *, #7, .T. ) ;
#106 = ORIENTED_EDGE ( 'NONE', *, *, #19, .T. ) ;
#107 = CIRCLE ( 'NONE', #12, 2.999999999999999100 ) ;
#108 = ORIENTED_EDGE ( 'NONE', *, *, #6, .T. ) ;
#109 = ORIENTED_EDGE ( 'NONE', *, *, #15, .T. ) ;
#110 = CIRCLE ( 'NONE', #17, 2.999999999999999100 ) ;
#111 = EDGE_LOOP ( 'NONE', ( #119, #114 ) ) ;
#112 = EDGE_LOOP ( 'NONE', ( #122, #109, #108, #123 ) ) ;
#113 = CLOSED_SHELL ( 'NONE', ( #136, #135, #137, #138 ) ) ;
#114 = ORIENTED_EDGE ( 'NONE', *, *, #15, .F. ) ;
#115 = EDGE_LOOP ( 'NONE', ( #104, #116 ) ) ;
#116 = ORIENTED_EDGE ( 'NONE', *, *, #16, .T. ) ;
#117 = SURFACE_STYLE_FILL_AREA ( #27 ) ;
#118 = CYLINDRICAL_SURFACE ( 'NONE', #11, 2.999999999999999100 ) ;
#119 = ORIENTED_EDGE ( 'NONE', *, *, #7, .F. ) ;
#120 = FACE_OUTER_BOUND ( 'NONE', #111, .T. ) ;
#121 = CIRCLE ( 'NONE', #21, 2.999999999999999100 ) ;
#122 = ORIENTED_EDGE ( 'NONE', *, *, #19, .F. ) ;
#123 = ORIENTED_EDGE ( 'NONE', *, *, #16, .F. ) ;
#124 =( GEOMETRIC_REPRESENTATION_CONTEXT ( 3 ) GLOBAL_UNCERTAINTY_ASSIGNED_CONTEXT ( ( #89 ) ) GLOBAL_UNIT_ASSIGNED_CONTEXT ( ( #59, #26, #53 ) ) REPRESENTATION_CONTEXT ( 'NONE', 'WORKASPACE' ) );
#125 = FACE_OUTER_BOUND ( 'NONE', #115, .T. ) ;
#126 = FACE_OUTER_BOUND ( 'NONE', #112, .T. ) ;
#127 = CYLINDRICAL_SURFACE ( 'NONE', #23, 2.999999999999999100 ) ;
#128 = FACE_OUTER_BOUND ( 'NONE', #102, .T. ) ;
#129 =( GEOMETRIC_REPRESENTATION_CONTEXT ( 3 ) GLOBAL_UNCERTAINTY_ASSIGNED_CONTEXT ( ( #91 ) ) GLOBAL_UNIT_ASSIGNED_CONTEXT ( ( #69, #70, #73 ) ) REPRESENTATION_CONTEXT ( 'NONE', 'WORKASPACE' ) );
#130 = COLOUR_RGB ( '',0.7529411764705882200, 0.7529411764705882200, 0.7529411764705882200 ) ;
#131 = SURFACE_STYLE_FILL_AREA ( #74 ) ;
#132 = PRESENTATION_STYLE_ASSIGNMENT (( #76 ) ) ;
#133 =( GEOMETRIC_REPRESENTATION_CONTEXT ( 3 ) GLOBAL_UNCERTAINTY_ASSIGNED_CONTEXT ( ( #92 ) ) GLOBAL_UNIT_ASSIGNED_CONTEXT ( ( #77, #78, #79 ) ) REPRESENTATION_CONTEXT ( 'NONE', 'WORKASPACE' ) );
#134 = SHAPE_DEFINITION_REPRESENTATION ( #140, #93 ) ;
#135 = ADVANCED_FACE ( 'NONE', ( #126 ), #118, .T. ) ;
#136 = ADVANCED_FACE ( 'NONE', ( #128 ), #127, .T. ) ;
#137 = ADVANCED_FACE ( 'NONE', ( #120 ), #67, .F. ) ;
#138 = ADVANCED_FACE ( 'NONE', ( #125 ), #64, .F. ) ;
#139 = PRODUCT_DEFINITION_CONTEXT ( 'detailed design', #86, 'design' ) ;
#140 = PRODUCT_DEFINITION_SHAPE ( 'NONE', 'NONE',  #20 ) ;
ENDSEC;
END-ISO-10303-21;
