ISO-10303-21;
HEADER;
FILE_DESCRIPTION (( 'STEP AP214' ),
    '1' );
FILE_NAME ('CWE-008-_-h7-1000-ltk.step',
    '2020-09-09T10:19:32',
    ( '' ),
    ( '' ),
    'SwSTEP 2.0',
    'SolidWorks 2010',
    '' );
FILE_SCHEMA (( 'AUTOMOTIVE_DESIGN' ));
ENDSEC;

DATA;
#1 = AXIS2_PLACEMENT_3D ( 'NONE', #55, #66, #67 ) ;
#2 = AXIS2_PLACEMENT_3D ( 'NONE', #93, #94, #95 ) ;
#3 = STYLED_ITEM ( 'NONE', ( #31 ), #23 ) ;
#4 = PRODUCT_RELATED_PRODUCT_CATEGORY ( 'part', '', ( #28 ) ) ;
#5 = AXIS2_PLACEMENT_3D ( 'NONE', #60, #62, #63 ) ;
#6 = PRODUCT_DEFINITION ( 'UNKNOWN', '', #17, #18 ) ;
#7 = AXIS2_PLACEMENT_3D ( 'NONE', #76, #79, #80 ) ;
#8 = STYLED_ITEM ( 'NONE', ( #48 ), #22 ) ;
#9 = MECHANICAL_DESIGN_GEOMETRIC_PRESENTATION_REPRESENTATION (  '', ( #3 ), #30 ) ;
#10 = PRESENTATION_LAYER_ASSIGNMENT (  '', '', ( #3 ) ) ;
#11 = EDGE_CURVE ( 'NONE', #81, #81, #37, .T. ) ;
#12 = AXIS2_PLACEMENT_3D ( 'NONE', #59, #68, #75 ) ;
#13 = AXIS2_PLACEMENT_3D ( 'NONE', #61, #58, #57 ) ;
#14 = EDGE_CURVE ( 'NONE', #82, #82, #40, .T. ) ;
#15 = MECHANICAL_DESIGN_GEOMETRIC_PRESENTATION_REPRESENTATION (  '', ( #8 ), #45 ) ;
#16 = PRESENTATION_LAYER_ASSIGNMENT (  '', '', ( #8 ) ) ;
#17 = PRODUCT_DEFINITION_FORMATION_WITH_SPECIFIED_SOURCE ( 'ANY', '', #28, .NOT_KNOWN. ) ;
#18 = PRODUCT_DEFINITION_CONTEXT ( 'detailed design', #99, 'design' ) ;
#19 = PRODUCT_DEFINITION_SHAPE ( 'NONE', 'NONE',  #6 ) ;
#20 = ADVANCED_FACE ( 'NONE', ( #38 ), #64, .F. ) ;
#21 = UNCERTAINTY_MEASURE_WITH_UNIT (LENGTH_MEASURE( 1.000000000000000100E-005 ), #72, 'distance_accuracy_value', 'NONE');
#22 = MANIFOLD_SOLID_BREP ( 'body', #39 ) ;
#23 = ADVANCED_BREP_SHAPE_REPRESENTATION ( 'CWE-008-_-h7-1000-ltk', ( #22, #2 ), #41 ) ;
#24 = UNCERTAINTY_MEASURE_WITH_UNIT (LENGTH_MEASURE( 1.000000000000000100E-005 ), #90, 'distance_accuracy_value', 'NONE');
#25 = UNCERTAINTY_MEASURE_WITH_UNIT (LENGTH_MEASURE( 1.000000000000000100E-005 ), #84, 'distance_accuracy_value', 'NONE');
#26 = ADVANCED_FACE ( 'NONE', ( #46, #44 ), #42, .T. ) ;
#27 = ADVANCED_FACE ( 'NONE', ( #53 ), #77, .F. ) ;
#28 = PRODUCT ( 'CWE-008-_-h7-1000-ltk', 'CWE-008-_-h7-1000-ltk', '', ( #98 ) ) ;
#29 = SHAPE_DEFINITION_REPRESENTATION ( #19, #23 ) ;
#30 =( GEOMETRIC_REPRESENTATION_CONTEXT ( 3 ) GLOBAL_UNCERTAINTY_ASSIGNED_CONTEXT ( ( #24 ) ) GLOBAL_UNIT_ASSIGNED_CONTEXT ( ( #90, #91, #92 ) ) REPRESENTATION_CONTEXT ( 'NONE', 'WORKASPACE' ) );
#31 = PRESENTATION_STYLE_ASSIGNMENT (( #89 ) ) ;
#32 = ORIENTED_EDGE ( 'NONE', *, *, #11, .T. ) ;
#33 = SURFACE_STYLE_FILL_AREA ( #69 ) ;
#34 = ORIENTED_EDGE ( 'NONE', *, *, #14, .T. ) ;
#35 = COLOUR_RGB ( '',0.7529411764705882200, 0.7529411764705882200, 0.7529411764705882200 ) ;
#36 = ORIENTED_EDGE ( 'NONE', *, *, #11, .F. ) ;
#37 = CIRCLE ( 'NONE', #13, 4.000000000000000000 ) ;
#38 = FACE_OUTER_BOUND ( 'NONE', #51, .T. ) ;
#39 = CLOSED_SHELL ( 'NONE', ( #26, #20, #27 ) ) ;
#40 = CIRCLE ( 'NONE', #5, 4.000000000000000000 ) ;
#41 =( GEOMETRIC_REPRESENTATION_CONTEXT ( 3 ) GLOBAL_UNCERTAINTY_ASSIGNED_CONTEXT ( ( #25 ) ) GLOBAL_UNIT_ASSIGNED_CONTEXT ( ( #84, #85, #86 ) ) REPRESENTATION_CONTEXT ( 'NONE', 'WORKASPACE' ) );
#42 = CYLINDRICAL_SURFACE ( 'NONE', #12, 4.000000000000000000 ) ;
#43 = COLOUR_RGB ( '',0.7529411764705882200, 0.7529411764705882200, 0.7529411764705882200 ) ;
#44 = FACE_OUTER_BOUND ( 'NONE', #52, .T. ) ;
#45 =( GEOMETRIC_REPRESENTATION_CONTEXT ( 3 ) GLOBAL_UNCERTAINTY_ASSIGNED_CONTEXT ( ( #21 ) ) GLOBAL_UNIT_ASSIGNED_CONTEXT ( ( #72, #73, #74 ) ) REPRESENTATION_CONTEXT ( 'NONE', 'WORKASPACE' ) );
#46 = FACE_OUTER_BOUND ( 'NONE', #49, .T. ) ;
#47 = ORIENTED_EDGE ( 'NONE', *, *, #14, .F. ) ;
#48 = PRESENTATION_STYLE_ASSIGNMENT (( #71 ) ) ;
#49 = EDGE_LOOP ( 'NONE', ( #36 ) ) ;
#50 = EDGE_LOOP ( 'NONE', ( #32 ) ) ;
#51 = EDGE_LOOP ( 'NONE', ( #47 ) ) ;
#52 = EDGE_LOOP ( 'NONE', ( #34 ) ) ;
#53 = FACE_OUTER_BOUND ( 'NONE', #50, .T. ) ;
#54 = SURFACE_STYLE_FILL_AREA ( #78 ) ;
#55 = CARTESIAN_POINT ( 'NONE',  ( 0.0000000000000000000, 4.000000000000000000, -1000.000000000000000 ) ) ;
#56 = CARTESIAN_POINT ( 'NONE',  ( 4.000000000000000000, 0.0000000000000000000, -1000.000000000000000 ) ) ;
#57 = DIRECTION ( 'NONE',  ( 1.000000000000000000, 0.0000000000000000000, 0.0000000000000000000 ) ) ;
#58 = DIRECTION ( 'NONE',  ( -0.0000000000000000000, -0.0000000000000000000, 1.000000000000000000 ) ) ;
#59 = CARTESIAN_POINT ( 'NONE',  ( 0.0000000000000000000, 0.0000000000000000000, 18.26174999999999200 ) ) ;
#60 = CARTESIAN_POINT ( 'NONE',  ( 0.0000000000000000000, 0.0000000000000000000, -1000.000000000000000 ) ) ;
#61 = CARTESIAN_POINT ( 'NONE',  ( 0.0000000000000000000, 0.0000000000000000000, 0.0000000000000000000 ) ) ;
#62 = DIRECTION ( 'NONE',  ( -0.0000000000000000000, -0.0000000000000000000, 1.000000000000000000 ) ) ;
#63 = DIRECTION ( 'NONE',  ( 1.000000000000000000, 0.0000000000000000000, 0.0000000000000000000 ) ) ;
#64 = PLANE ( 'NONE',  #1 ) ;
#65 = FILL_AREA_STYLE_COLOUR ( '', #35 ) ;
#66 = DIRECTION ( 'NONE',  ( 0.0000000000000000000, -0.0000000000000000000, 1.000000000000000000 ) ) ;
#67 = DIRECTION ( 'NONE',  ( 1.000000000000000000, 0.0000000000000000000, 0.0000000000000000000 ) ) ;
#68 = DIRECTION ( 'NONE',  ( -0.0000000000000000000, -0.0000000000000000000, 1.000000000000000000 ) ) ;
#69 = FILL_AREA_STYLE ('',( #65 ) ) ;
#70 = SURFACE_SIDE_STYLE ('',( #33 ) ) ;
#71 = SURFACE_STYLE_USAGE ( .BOTH. , #70 ) ;
#72 =( LENGTH_UNIT ( ) NAMED_UNIT ( * ) SI_UNIT ( .MILLI., .METRE. ) );
#73 =( NAMED_UNIT ( * ) PLANE_ANGLE_UNIT ( ) SI_UNIT ( $, .RADIAN. ) );
#74 =( NAMED_UNIT ( * ) SI_UNIT ( $, .STERADIAN. ) SOLID_ANGLE_UNIT ( ) );
#75 = DIRECTION ( 'NONE',  ( 1.000000000000000000, 0.0000000000000000000, 0.0000000000000000000 ) ) ;
#76 = CARTESIAN_POINT ( 'NONE',  ( 0.0000000000000000000, 4.000000000000000000, 0.0000000000000000000 ) ) ;
#77 = PLANE ( 'NONE',  #7 ) ;
#78 = FILL_AREA_STYLE ('',( #87 ) ) ;
#79 = DIRECTION ( 'NONE',  ( 0.0000000000000000000, 0.0000000000000000000, -1.000000000000000000 ) ) ;
#80 = DIRECTION ( 'NONE',  ( -1.000000000000000000, 0.0000000000000000000, -0.0000000000000000000 ) ) ;
#81 = VERTEX_POINT ( 'NONE', #83 ) ;
#82 = VERTEX_POINT ( 'NONE', #56 ) ;
#83 = CARTESIAN_POINT ( 'NONE',  ( 4.000000000000000000, 0.0000000000000000000, 0.0000000000000000000 ) ) ;
#84 =( LENGTH_UNIT ( ) NAMED_UNIT ( * ) SI_UNIT ( .MILLI., .METRE. ) );
#85 =( NAMED_UNIT ( * ) PLANE_ANGLE_UNIT ( ) SI_UNIT ( $, .RADIAN. ) );
#86 =( NAMED_UNIT ( * ) SI_UNIT ( $, .STERADIAN. ) SOLID_ANGLE_UNIT ( ) );
#87 = FILL_AREA_STYLE_COLOUR ( '', #43 ) ;
#88 = SURFACE_SIDE_STYLE ('',( #54 ) ) ;
#89 = SURFACE_STYLE_USAGE ( .BOTH. , #88 ) ;
#90 =( LENGTH_UNIT ( ) NAMED_UNIT ( * ) SI_UNIT ( .MILLI., .METRE. ) );
#91 =( NAMED_UNIT ( * ) PLANE_ANGLE_UNIT ( ) SI_UNIT ( $, .RADIAN. ) );
#92 =( NAMED_UNIT ( * ) SI_UNIT ( $, .STERADIAN. ) SOLID_ANGLE_UNIT ( ) );
#93 = CARTESIAN_POINT ( 'NONE',  ( 0.0000000000000000000, 0.0000000000000000000, 0.0000000000000000000 ) ) ;
#94 = DIRECTION ( 'NONE',  ( 0.0000000000000000000, 0.0000000000000000000, 1.000000000000000000 ) ) ;
#95 = DIRECTION ( 'NONE',  ( 1.000000000000000000, 0.0000000000000000000, 0.0000000000000000000 ) ) ;
#96 = APPLICATION_CONTEXT ( 'automotive_design' ) ;
#97 = APPLICATION_PROTOCOL_DEFINITION ( 'draft international standard', 'automotive_design', 1998, #96 ) ;
#98 = PRODUCT_CONTEXT ( 'NONE', #96, 'mechanical' ) ;
#99 = APPLICATION_CONTEXT ( 'automotive_design' ) ;
#100 = APPLICATION_PROTOCOL_DEFINITION ( 'draft international standard', 'automotive_design', 1998, #99 ) ;
ENDSEC;
END-ISO-10303-21;
