ISO-10303-21;
HEADER;
FILE_DESCRIPTION (( 'STEP AP214' ),
    '1' );
FILE_NAME ('CWE-010-_-h7-1000-ltk.step',
    '2020-09-09T10:20:00',
    ( '' ),
    ( '' ),
    'SwSTEP 2.0',
    'SolidWorks 2010',
    '' );
FILE_SCHEMA (( 'AUTOMOTIVE_DESIGN' ));
ENDSEC;

DATA;
#1 = PRODUCT ( 'CWE-010-_-h7-1000-ltk', 'CWE-010-_-h7-1000-ltk', '', ( #103 ) ) ;
#2 = COLOUR_RGB ( '',0.7529411764705882200, 0.7529411764705882200, 0.7529411764705882200 ) ;
#3 =( GEOMETRIC_REPRESENTATION_CONTEXT ( 3 ) GLOBAL_UNCERTAINTY_ASSIGNED_CONTEXT ( ( #114 ) ) GLOBAL_UNIT_ASSIGNED_CONTEXT ( ( #68, #72, #73 ) ) REPRESENTATION_CONTEXT ( 'NONE', 'WORKASPACE' ) );
#4 = ORIENTED_EDGE ( 'NONE', *, *, #125, .T. ) ;
#5 = ORIENTED_EDGE ( 'NONE', *, *, #125, .F. ) ;
#6 = CYLINDRICAL_SURFACE ( 'NONE', #124, 5.000000000000000900 ) ;
#7 = ORIENTED_EDGE ( 'NONE', *, *, #137, .F. ) ;
#8 = SURFACE_STYLE_FILL_AREA ( #71 ) ;
#9 = FACE_OUTER_BOUND ( 'NONE', #31, .T. ) ;
#10 = CYLINDRICAL_SURFACE ( 'NONE', #120, 5.000000000000000900 ) ;
#11 = LINE ( 'NONE', #60, #12 ) ;
#12 = VECTOR ( 'NONE', #74, 1000.000000000000000 ) ;
#13 = VECTOR ( 'NONE', #76, 1000.000000000000000 ) ;
#14 =( GEOMETRIC_REPRESENTATION_CONTEXT ( 3 ) GLOBAL_UNCERTAINTY_ASSIGNED_CONTEXT ( ( #112 ) ) GLOBAL_UNIT_ASSIGNED_CONTEXT ( ( #95, #96, #97 ) ) REPRESENTATION_CONTEXT ( 'NONE', 'WORKASPACE' ) );
#15 = ORIENTED_EDGE ( 'NONE', *, *, #131, .F. ) ;
#16 = ORIENTED_EDGE ( 'NONE', *, *, #136, .T. ) ;
#17 = SHAPE_DEFINITION_REPRESENTATION ( #116, #113 ) ;
#18 = FACE_OUTER_BOUND ( 'NONE', #23, .T. ) ;
#19 = ORIENTED_EDGE ( 'NONE', *, *, #123, .F. ) ;
#20 = ORIENTED_EDGE ( 'NONE', *, *, #139, .T. ) ;
#21 = FACE_OUTER_BOUND ( 'NONE', #28, .T. ) ;
#22 = ORIENTED_EDGE ( 'NONE', *, *, #137, .T. ) ;
#23 = EDGE_LOOP ( 'NONE', ( #22, #4, #15, #19 ) ) ;
#24 = ORIENTED_EDGE ( 'NONE', *, *, #131, .T. ) ;
#25 = COLOUR_RGB ( '',0.7529411764705882200, 0.7529411764705882200, 0.7529411764705882200 ) ;
#26 = PRESENTATION_STYLE_ASSIGNMENT (( #94 ) ) ;
#27 = ORIENTED_EDGE ( 'NONE', *, *, #123, .T. ) ;
#28 = EDGE_LOOP ( 'NONE', ( #24, #16 ) ) ;
#29 = EDGE_LOOP ( 'NONE', ( #7, #42 ) ) ;
#30 = ORIENTED_EDGE ( 'NONE', *, *, #136, .F. ) ;
#31 = EDGE_LOOP ( 'NONE', ( #5, #20, #27, #30 ) ) ;
#32 = CLOSED_SHELL ( 'NONE', ( #106, #107, #109, #108 ) ) ;
#33 =( GEOMETRIC_REPRESENTATION_CONTEXT ( 3 ) GLOBAL_UNCERTAINTY_ASSIGNED_CONTEXT ( ( #111 ) ) GLOBAL_UNIT_ASSIGNED_CONTEXT ( ( #87, #86, #90 ) ) REPRESENTATION_CONTEXT ( 'NONE', 'WORKASPACE' ) );
#34 = CIRCLE ( 'NONE', #130, 5.000000000000000900 ) ;
#35 = CIRCLE ( 'NONE', #129, 5.000000000000000900 ) ;
#36 = PRESENTATION_STYLE_ASSIGNMENT (( #69 ) ) ;
#37 = CIRCLE ( 'NONE', #119, 5.000000000000000900 ) ;
#38 = SURFACE_STYLE_FILL_AREA ( #92 ) ;
#39 = CIRCLE ( 'NONE', #132, 5.000000000000000900 ) ;
#40 = LINE ( 'NONE', #75, #13 ) ;
#41 = FACE_OUTER_BOUND ( 'NONE', #29, .T. ) ;
#42 = ORIENTED_EDGE ( 'NONE', *, *, #139, .F. ) ;
#43 = CARTESIAN_POINT ( 'NONE',  ( -5.000000000000000900, 6.123233995736767300E-016, 0.0000000000000000000 ) ) ;
#44 = DIRECTION ( 'NONE',  ( 1.000000000000000000, 0.0000000000000000000, 0.0000000000000000000 ) ) ;
#45 = VERTEX_POINT ( 'NONE', #46 ) ;
#46 = CARTESIAN_POINT ( 'NONE',  ( 5.000000000000000900, 0.0000000000000000000, -1000.000000000000000 ) ) ;
#47 = DIRECTION ( 'NONE',  ( -0.0000000000000000000, -0.0000000000000000000, 1.000000000000000000 ) ) ;
#48 = VERTEX_POINT ( 'NONE', #52 ) ;
#49 = VERTEX_POINT ( 'NONE', #43 ) ;
#50 = VERTEX_POINT ( 'NONE', #53 ) ;
#51 = PLANE ( 'NONE',  #121 ) ;
#52 = CARTESIAN_POINT ( 'NONE',  ( -5.000000000000000900, 6.123233995736767300E-016, -1000.000000000000000 ) ) ;
#53 = CARTESIAN_POINT ( 'NONE',  ( 5.000000000000000900, 0.0000000000000000000, 0.0000000000000000000 ) ) ;
#54 = CARTESIAN_POINT ( 'NONE',  ( 0.0000000000000000000, 0.0000000000000000000, 18.26174999999999200 ) ) ;
#55 = CARTESIAN_POINT ( 'NONE',  ( 0.0000000000000000000, 5.000000000000000900, -1000.000000000000000 ) ) ;
#56 = CARTESIAN_POINT ( 'NONE',  ( 0.0000000000000000000, 5.000000000000000900, 0.0000000000000000000 ) ) ;
#57 = PLANE ( 'NONE',  #134 ) ;
#58 = DIRECTION ( 'NONE',  ( 0.0000000000000000000, -0.0000000000000000000, 1.000000000000000000 ) ) ;
#59 = DIRECTION ( 'NONE',  ( 1.000000000000000000, 0.0000000000000000000, 0.0000000000000000000 ) ) ;
#60 = CARTESIAN_POINT ( 'NONE',  ( 5.000000000000000900, 0.0000000000000000000, 18.26174999999999200 ) ) ;
#61 = FILL_AREA_STYLE_COLOUR ( '', #2 ) ;
#62 = DIRECTION ( 'NONE',  ( 1.000000000000000000, 0.0000000000000000000, 0.0000000000000000000 ) ) ;
#63 = CARTESIAN_POINT ( 'NONE',  ( 0.0000000000000000000, 0.0000000000000000000, 18.26174999999999200 ) ) ;
#64 = DIRECTION ( 'NONE',  ( -0.0000000000000000000, -0.0000000000000000000, 1.000000000000000000 ) ) ;
#65 = CARTESIAN_POINT ( 'NONE',  ( 0.0000000000000000000, 0.0000000000000000000, -1000.000000000000000 ) ) ;
#66 = DIRECTION ( 'NONE',  ( -1.000000000000000000, 0.0000000000000000000, -0.0000000000000000000 ) ) ;
#67 = DIRECTION ( 'NONE',  ( 0.0000000000000000000, 0.0000000000000000000, -1.000000000000000000 ) ) ;
#68 =( LENGTH_UNIT ( ) NAMED_UNIT ( * ) SI_UNIT ( .MILLI., .METRE. ) );
#69 = SURFACE_STYLE_USAGE ( .BOTH. , #70 ) ;
#70 = SURFACE_SIDE_STYLE ('',( #8 ) ) ;
#71 = FILL_AREA_STYLE ('',( #61 ) ) ;
#72 =( NAMED_UNIT ( * ) PLANE_ANGLE_UNIT ( ) SI_UNIT ( $, .RADIAN. ) );
#73 =( NAMED_UNIT ( * ) SI_UNIT ( $, .STERADIAN. ) SOLID_ANGLE_UNIT ( ) );
#74 = DIRECTION ( 'NONE',  ( -0.0000000000000000000, -0.0000000000000000000, 1.000000000000000000 ) ) ;
#75 = CARTESIAN_POINT ( 'NONE',  ( -5.000000000000000900, 6.123233995736767300E-016, 18.26174999999999200 ) ) ;
#76 = DIRECTION ( 'NONE',  ( -0.0000000000000000000, -0.0000000000000000000, 1.000000000000000000 ) ) ;
#77 = CARTESIAN_POINT ( 'NONE',  ( 0.0000000000000000000, 0.0000000000000000000, 0.0000000000000000000 ) ) ;
#78 = DIRECTION ( 'NONE',  ( -0.0000000000000000000, -0.0000000000000000000, 1.000000000000000000 ) ) ;
#79 = DIRECTION ( 'NONE',  ( 1.000000000000000000, 0.0000000000000000000, 0.0000000000000000000 ) ) ;
#80 = CARTESIAN_POINT ( 'NONE',  ( 0.0000000000000000000, 0.0000000000000000000, 0.0000000000000000000 ) ) ;
#81 = CARTESIAN_POINT ( 'NONE',  ( 0.0000000000000000000, 0.0000000000000000000, -1000.000000000000000 ) ) ;
#82 = DIRECTION ( 'NONE',  ( -0.0000000000000000000, -0.0000000000000000000, 1.000000000000000000 ) ) ;
#83 = DIRECTION ( 'NONE',  ( 1.000000000000000000, 0.0000000000000000000, 0.0000000000000000000 ) ) ;
#84 = DIRECTION ( 'NONE',  ( -0.0000000000000000000, -0.0000000000000000000, 1.000000000000000000 ) ) ;
#85 = DIRECTION ( 'NONE',  ( 1.000000000000000000, 0.0000000000000000000, 0.0000000000000000000 ) ) ;
#86 =( NAMED_UNIT ( * ) PLANE_ANGLE_UNIT ( ) SI_UNIT ( $, .RADIAN. ) );
#87 =( LENGTH_UNIT ( ) NAMED_UNIT ( * ) SI_UNIT ( .MILLI., .METRE. ) );
#88 = DIRECTION ( 'NONE',  ( -0.0000000000000000000, -0.0000000000000000000, 1.000000000000000000 ) ) ;
#89 = DIRECTION ( 'NONE',  ( 1.000000000000000000, 0.0000000000000000000, 0.0000000000000000000 ) ) ;
#90 =( NAMED_UNIT ( * ) SI_UNIT ( $, .STERADIAN. ) SOLID_ANGLE_UNIT ( ) );
#91 = FILL_AREA_STYLE_COLOUR ( '', #25 ) ;
#92 = FILL_AREA_STYLE ('',( #91 ) ) ;
#93 = SURFACE_SIDE_STYLE ('',( #38 ) ) ;
#94 = SURFACE_STYLE_USAGE ( .BOTH. , #93 ) ;
#95 =( LENGTH_UNIT ( ) NAMED_UNIT ( * ) SI_UNIT ( .MILLI., .METRE. ) );
#96 =( NAMED_UNIT ( * ) PLANE_ANGLE_UNIT ( ) SI_UNIT ( $, .RADIAN. ) );
#97 =( NAMED_UNIT ( * ) SI_UNIT ( $, .STERADIAN. ) SOLID_ANGLE_UNIT ( ) );
#98 = CARTESIAN_POINT ( 'NONE',  ( 0.0000000000000000000, 0.0000000000000000000, 0.0000000000000000000 ) ) ;
#99 = DIRECTION ( 'NONE',  ( 0.0000000000000000000, 0.0000000000000000000, 1.000000000000000000 ) ) ;
#100 = DIRECTION ( 'NONE',  ( 1.000000000000000000, 0.0000000000000000000, 0.0000000000000000000 ) ) ;
#101 = APPLICATION_CONTEXT ( 'automotive_design' ) ;
#102 = APPLICATION_PROTOCOL_DEFINITION ( 'draft international standard', 'automotive_design', 1998, #101 ) ;
#103 = PRODUCT_CONTEXT ( 'NONE', #101, 'mechanical' ) ;
#104 = APPLICATION_CONTEXT ( 'automotive_design' ) ;
#105 = APPLICATION_PROTOCOL_DEFINITION ( 'draft international standard', 'automotive_design', 1998, #104 ) ;
#106 = ADVANCED_FACE ( 'NONE', ( #18 ), #10, .T. ) ;
#107 = ADVANCED_FACE ( 'NONE', ( #9 ), #6, .T. ) ;
#108 = ADVANCED_FACE ( 'NONE', ( #21 ), #57, .F. ) ;
#109 = ADVANCED_FACE ( 'NONE', ( #41 ), #51, .F. ) ;
#110 = MANIFOLD_SOLID_BREP ( 'body', #32 ) ;
#111 = UNCERTAINTY_MEASURE_WITH_UNIT (LENGTH_MEASURE( 1.000000000000000100E-005 ), #87, 'distance_accuracy_value', 'NONE');
#112 = UNCERTAINTY_MEASURE_WITH_UNIT (LENGTH_MEASURE( 1.000000000000000100E-005 ), #95, 'distance_accuracy_value', 'NONE');
#113 = ADVANCED_BREP_SHAPE_REPRESENTATION ( 'CWE-010-_-h7-1000-ltk', ( #110, #126 ), #33 ) ;
#114 = UNCERTAINTY_MEASURE_WITH_UNIT (LENGTH_MEASURE( 1.000000000000000100E-005 ), #68, 'distance_accuracy_value', 'NONE');
#115 = PRODUCT_DEFINITION_CONTEXT ( 'detailed design', #104, 'design' ) ;
#116 = PRODUCT_DEFINITION_SHAPE ( 'NONE', 'NONE',  #138 ) ;
#117 = PRODUCT_RELATED_PRODUCT_CATEGORY ( 'part', '', ( #1 ) ) ;
#118 = STYLED_ITEM ( 'NONE', ( #36 ), #110 ) ;
#119 = AXIS2_PLACEMENT_3D ( 'NONE', #80, #82, #83 ) ;
#120 = AXIS2_PLACEMENT_3D ( 'NONE', #54, #47, #44 ) ;
#121 = AXIS2_PLACEMENT_3D ( 'NONE', #55, #58, #59 ) ;
#122 = MECHANICAL_DESIGN_GEOMETRIC_PRESENTATION_REPRESENTATION (  '', ( #118 ), #3 ) ;
#123 = EDGE_CURVE ( 'NONE', #45, #50, #11, .T. ) ;
#124 = AXIS2_PLACEMENT_3D ( 'NONE', #63, #64, #62 ) ;
#125 = EDGE_CURVE ( 'NONE', #48, #49, #40, .T. ) ;
#126 = AXIS2_PLACEMENT_3D ( 'NONE', #98, #99, #100 ) ;
#127 = PRODUCT_DEFINITION_FORMATION_WITH_SPECIFIED_SOURCE ( 'ANY', '', #1, .NOT_KNOWN. ) ;
#128 = PRESENTATION_LAYER_ASSIGNMENT (  '', '', ( #118 ) ) ;
#129 = AXIS2_PLACEMENT_3D ( 'NONE', #81, #88, #89 ) ;
#130 = AXIS2_PLACEMENT_3D ( 'NONE', #65, #84, #85 ) ;
#131 = EDGE_CURVE ( 'NONE', #50, #49, #39, .T. ) ;
#132 = AXIS2_PLACEMENT_3D ( 'NONE', #77, #78, #79 ) ;
#133 = PRESENTATION_LAYER_ASSIGNMENT (  '', '', ( #140 ) ) ;
#134 = AXIS2_PLACEMENT_3D ( 'NONE', #56, #67, #66 ) ;
#135 = MECHANICAL_DESIGN_GEOMETRIC_PRESENTATION_REPRESENTATION (  '', ( #140 ), #14 ) ;
#136 = EDGE_CURVE ( 'NONE', #49, #50, #37, .T. ) ;
#137 = EDGE_CURVE ( 'NONE', #45, #48, #34, .T. ) ;
#138 = PRODUCT_DEFINITION ( 'UNKNOWN', '', #127, #115 ) ;
#139 = EDGE_CURVE ( 'NONE', #48, #45, #35, .T. ) ;
#140 = STYLED_ITEM ( 'NONE', ( #26 ), #113 ) ;
ENDSEC;
END-ISO-10303-21;
