ISO-10303-21;
HEADER;
FILE_DESCRIPTION (( 'STEP AP214' ),
    '1' );
FILE_NAME ('CWE-012-_-h7-1000-ltk.step',
    '2020-09-09T10:20:55',
    ( '' ),
    ( '' ),
    'SwSTEP 2.0',
    'SolidWorks 2010',
    '' );
FILE_SCHEMA (( 'AUTOMOTIVE_DESIGN' ));
ENDSEC;

DATA;
#1 = PRODUCT ( 'CWE-012-_-h7-1000-ltk', 'CWE-012-_-h7-1000-ltk', '', ( #45 ) ) ;
#2 = CARTESIAN_POINT ( 'NONE',  ( 0.0000000000000000000, 0.0000000000000000000, 0.0000000000000000000 ) ) ;
#3 = CARTESIAN_POINT ( 'NONE',  ( 0.0000000000000000000, 0.0000000000000000000, -1000.000000000000000 ) ) ;
#4 = PLANE ( 'NONE',  #87 ) ;
#5 = DIRECTION ( 'NONE',  ( 1.000000000000000000, 0.0000000000000000000, 0.0000000000000000000 ) ) ;
#6 = CARTESIAN_POINT ( 'NONE',  ( 0.0000000000000000000, 6.000000000000001800, 0.0000000000000000000 ) ) ;
#7 = DIRECTION ( 'NONE',  ( 0.0000000000000000000, 0.0000000000000000000, -1.000000000000000000 ) ) ;
#8 = DIRECTION ( 'NONE',  ( -1.000000000000000000, 0.0000000000000000000, -0.0000000000000000000 ) ) ;
#9 = CARTESIAN_POINT ( 'NONE',  ( 0.0000000000000000000, 0.0000000000000000000, 18.26174999999999200 ) ) ;
#10 = DIRECTION ( 'NONE',  ( -0.0000000000000000000, -0.0000000000000000000, 1.000000000000000000 ) ) ;
#11 = DIRECTION ( 'NONE',  ( 0.0000000000000000000, -0.0000000000000000000, 1.000000000000000000 ) ) ;
#12 = DIRECTION ( 'NONE',  ( 1.000000000000000000, 0.0000000000000000000, 0.0000000000000000000 ) ) ;
#13 =( NAMED_UNIT ( * ) SI_UNIT ( $, .STERADIAN. ) SOLID_ANGLE_UNIT ( ) );
#14 = VERTEX_POINT ( 'NONE', #30 ) ;
#15 =( NAMED_UNIT ( * ) PLANE_ANGLE_UNIT ( ) SI_UNIT ( $, .RADIAN. ) );
#16 = CARTESIAN_POINT ( 'NONE',  ( 0.0000000000000000000, 6.000000000000001800, -1000.000000000000000 ) ) ;
#17 = FILL_AREA_STYLE_COLOUR ( '', #62 ) ;
#18 = PLANE ( 'NONE',  #85 ) ;
#19 =( LENGTH_UNIT ( ) NAMED_UNIT ( * ) SI_UNIT ( .MILLI., .METRE. ) );
#20 = FILL_AREA_STYLE ('',( #17 ) ) ;
#21 = SURFACE_STYLE_USAGE ( .BOTH. , #22 ) ;
#22 = SURFACE_SIDE_STYLE ('',( #52 ) ) ;
#23 = FILL_AREA_STYLE ('',( #34 ) ) ;
#24 = VERTEX_POINT ( 'NONE', #29 ) ;
#25 = DIRECTION ( 'NONE',  ( 1.000000000000000000, 0.0000000000000000000, 0.0000000000000000000 ) ) ;
#26 = DIRECTION ( 'NONE',  ( -0.0000000000000000000, -0.0000000000000000000, 1.000000000000000000 ) ) ;
#27 = DIRECTION ( 'NONE',  ( -0.0000000000000000000, -0.0000000000000000000, 1.000000000000000000 ) ) ;
#28 = DIRECTION ( 'NONE',  ( 1.000000000000000000, 0.0000000000000000000, 0.0000000000000000000 ) ) ;
#29 = CARTESIAN_POINT ( 'NONE',  ( 6.000000000000001800, 0.0000000000000000000, 0.0000000000000000000 ) ) ;
#30 = CARTESIAN_POINT ( 'NONE',  ( 6.000000000000001800, 0.0000000000000000000, -1000.000000000000000 ) ) ;
#31 =( LENGTH_UNIT ( ) NAMED_UNIT ( * ) SI_UNIT ( .MILLI., .METRE. ) );
#32 =( NAMED_UNIT ( * ) PLANE_ANGLE_UNIT ( ) SI_UNIT ( $, .RADIAN. ) );
#33 =( NAMED_UNIT ( * ) SI_UNIT ( $, .STERADIAN. ) SOLID_ANGLE_UNIT ( ) );
#34 = FILL_AREA_STYLE_COLOUR ( '', #69 ) ;
#35 = SURFACE_SIDE_STYLE ('',( #67 ) ) ;
#36 = SURFACE_STYLE_USAGE ( .BOTH. , #35 ) ;
#37 =( LENGTH_UNIT ( ) NAMED_UNIT ( * ) SI_UNIT ( .MILLI., .METRE. ) );
#38 =( NAMED_UNIT ( * ) PLANE_ANGLE_UNIT ( ) SI_UNIT ( $, .RADIAN. ) );
#39 =( NAMED_UNIT ( * ) SI_UNIT ( $, .STERADIAN. ) SOLID_ANGLE_UNIT ( ) );
#40 = CARTESIAN_POINT ( 'NONE',  ( 0.0000000000000000000, 0.0000000000000000000, 0.0000000000000000000 ) ) ;
#41 = DIRECTION ( 'NONE',  ( 0.0000000000000000000, 0.0000000000000000000, 1.000000000000000000 ) ) ;
#42 = DIRECTION ( 'NONE',  ( 1.000000000000000000, 0.0000000000000000000, 0.0000000000000000000 ) ) ;
#43 = APPLICATION_CONTEXT ( 'automotive_design' ) ;
#44 = APPLICATION_PROTOCOL_DEFINITION ( 'draft international standard', 'automotive_design', 1998, #43 ) ;
#45 = PRODUCT_CONTEXT ( 'NONE', #43, 'mechanical' ) ;
#46 = APPLICATION_CONTEXT ( 'automotive_design' ) ;
#47 = APPLICATION_PROTOCOL_DEFINITION ( 'draft international standard', 'automotive_design', 1998, #46 ) ;
#48 = FACE_OUTER_BOUND ( 'NONE', #66, .T. ) ;
#49 = ORIENTED_EDGE ( 'NONE', *, *, #90, .T. ) ;
#50 = CLOSED_SHELL ( 'NONE', ( #75, #76, #74 ) ) ;
#51 = PRESENTATION_STYLE_ASSIGNMENT (( #21 ) ) ;
#52 = SURFACE_STYLE_FILL_AREA ( #20 ) ;
#53 = FACE_OUTER_BOUND ( 'NONE', #61, .T. ) ;
#54 = ORIENTED_EDGE ( 'NONE', *, *, #98, .F. ) ;
#55 = ORIENTED_EDGE ( 'NONE', *, *, #90, .F. ) ;
#56 = ORIENTED_EDGE ( 'NONE', *, *, #98, .T. ) ;
#57 = FACE_OUTER_BOUND ( 'NONE', #63, .T. ) ;
#58 =( GEOMETRIC_REPRESENTATION_CONTEXT ( 3 ) GLOBAL_UNCERTAINTY_ASSIGNED_CONTEXT ( ( #81 ) ) GLOBAL_UNIT_ASSIGNED_CONTEXT ( ( #19, #15, #13 ) ) REPRESENTATION_CONTEXT ( 'NONE', 'WORKASPACE' ) );
#59 = CYLINDRICAL_SURFACE ( 'NONE', #94, 6.000000000000001800 ) ;
#60 = FACE_OUTER_BOUND ( 'NONE', #65, .T. ) ;
#61 = EDGE_LOOP ( 'NONE', ( #56 ) ) ;
#62 = COLOUR_RGB ( '',0.7529411764705882200, 0.7529411764705882200, 0.7529411764705882200 ) ;
#63 = EDGE_LOOP ( 'NONE', ( #55 ) ) ;
#64 = PRESENTATION_STYLE_ASSIGNMENT (( #36 ) ) ;
#65 = EDGE_LOOP ( 'NONE', ( #49 ) ) ;
#66 = EDGE_LOOP ( 'NONE', ( #54 ) ) ;
#67 = SURFACE_STYLE_FILL_AREA ( #23 ) ;
#68 =( GEOMETRIC_REPRESENTATION_CONTEXT ( 3 ) GLOBAL_UNCERTAINTY_ASSIGNED_CONTEXT ( ( #83 ) ) GLOBAL_UNIT_ASSIGNED_CONTEXT ( ( #31, #32, #33 ) ) REPRESENTATION_CONTEXT ( 'NONE', 'WORKASPACE' ) );
#69 = COLOUR_RGB ( '',0.7529411764705882200, 0.7529411764705882200, 0.7529411764705882200 ) ;
#70 = CIRCLE ( 'NONE', #96, 6.000000000000001800 ) ;
#71 = CIRCLE ( 'NONE', #93, 6.000000000000001800 ) ;
#72 = SHAPE_DEFINITION_REPRESENTATION ( #78, #80 ) ;
#73 =( GEOMETRIC_REPRESENTATION_CONTEXT ( 3 ) GLOBAL_UNCERTAINTY_ASSIGNED_CONTEXT ( ( #82 ) ) GLOBAL_UNIT_ASSIGNED_CONTEXT ( ( #37, #38, #39 ) ) REPRESENTATION_CONTEXT ( 'NONE', 'WORKASPACE' ) );
#74 = ADVANCED_FACE ( 'NONE', ( #60 ), #4, .F. ) ;
#75 = ADVANCED_FACE ( 'NONE', ( #57, #53 ), #59, .T. ) ;
#76 = ADVANCED_FACE ( 'NONE', ( #48 ), #18, .F. ) ;
#77 = PRODUCT_DEFINITION_CONTEXT ( 'detailed design', #46, 'design' ) ;
#78 = PRODUCT_DEFINITION_SHAPE ( 'NONE', 'NONE',  #84 ) ;
#79 = MANIFOLD_SOLID_BREP ( 'body', #50 ) ;
#80 = ADVANCED_BREP_SHAPE_REPRESENTATION ( 'CWE-012-_-h7-1000-ltk', ( #79, #92 ), #68 ) ;
#81 = UNCERTAINTY_MEASURE_WITH_UNIT (LENGTH_MEASURE( 1.000000000000000100E-005 ), #19, 'distance_accuracy_value', 'NONE');
#82 = UNCERTAINTY_MEASURE_WITH_UNIT (LENGTH_MEASURE( 1.000000000000000100E-005 ), #37, 'distance_accuracy_value', 'NONE');
#83 = UNCERTAINTY_MEASURE_WITH_UNIT (LENGTH_MEASURE( 1.000000000000000100E-005 ), #31, 'distance_accuracy_value', 'NONE');
#84 = PRODUCT_DEFINITION ( 'UNKNOWN', '', #89, #77 ) ;
#85 = AXIS2_PLACEMENT_3D ( 'NONE', #16, #11, #12 ) ;
#86 = MECHANICAL_DESIGN_GEOMETRIC_PRESENTATION_REPRESENTATION (  '', ( #99 ), #73 ) ;
#87 = AXIS2_PLACEMENT_3D ( 'NONE', #6, #7, #8 ) ;
#88 = PRESENTATION_LAYER_ASSIGNMENT (  '', '', ( #97 ) ) ;
#89 = PRODUCT_DEFINITION_FORMATION_WITH_SPECIFIED_SOURCE ( 'ANY', '', #1, .NOT_KNOWN. ) ;
#90 = EDGE_CURVE ( 'NONE', #24, #24, #71, .T. ) ;
#91 = PRODUCT_RELATED_PRODUCT_CATEGORY ( 'part', '', ( #1 ) ) ;
#92 = AXIS2_PLACEMENT_3D ( 'NONE', #40, #41, #42 ) ;
#93 = AXIS2_PLACEMENT_3D ( 'NONE', #2, #26, #25 ) ;
#94 = AXIS2_PLACEMENT_3D ( 'NONE', #9, #10, #5 ) ;
#95 = MECHANICAL_DESIGN_GEOMETRIC_PRESENTATION_REPRESENTATION (  '', ( #97 ), #58 ) ;
#96 = AXIS2_PLACEMENT_3D ( 'NONE', #3, #27, #28 ) ;
#97 = STYLED_ITEM ( 'NONE', ( #51 ), #79 ) ;
#98 = EDGE_CURVE ( 'NONE', #14, #14, #70, .T. ) ;
#99 = STYLED_ITEM ( 'NONE', ( #64 ), #80 ) ;
#100 = PRESENTATION_LAYER_ASSIGNMENT (  '', '', ( #99 ) ) ;
ENDSEC;
END-ISO-10303-21;
