ISO-10303-21;
HEADER;
FILE_DESCRIPTION (( 'STEP AP214' ),
    '1' );
FILE_NAME ('CWE-014-_-h7-1000-ltk.step',
    '2020-09-09T10:21:28',
    ( '' ),
    ( '' ),
    'SwSTEP 2.0',
    'SolidWorks 2010',
    '' );
FILE_SCHEMA (( 'AUTOMOTIVE_DESIGN' ));
ENDSEC;

DATA;
#1 = PLANE ( 'NONE',  #95 ) ;
#2 = DIRECTION ( 'NONE',  ( 1.000000000000000000, 0.0000000000000000000, 0.0000000000000000000 ) ) ;
#3 = CARTESIAN_POINT ( 'NONE',  ( 0.0000000000000000000, 6.999999999999999100, 0.0000000000000000000 ) ) ;
#4 = CARTESIAN_POINT ( 'NONE',  ( 0.0000000000000000000, 6.999999999999992000, -1000.000000000000000 ) ) ;
#5 = DIRECTION ( 'NONE',  ( -0.0000000000000000000, -0.0000000000000000000, 1.000000000000000000 ) ) ;
#6 = PLANE ( 'NONE',  #84 ) ;
#7 = CARTESIAN_POINT ( 'NONE',  ( 0.0000000000000000000, 0.0000000000000000000, -1000.000000000000000 ) ) ;
#8 = DIRECTION ( 'NONE',  ( -1.000000000000000000, 0.0000000000000000000, -0.0000000000000000000 ) ) ;
#9 = VERTEX_POINT ( 'NONE', #14 ) ;
#10 = DIRECTION ( 'NONE',  ( 1.000000000000000000, 0.0000000000000000000, 0.0000000000000000000 ) ) ;
#11 = DIRECTION ( 'NONE',  ( -0.0000000000000000000, -0.0000000000000000000, 1.000000000000000000 ) ) ;
#12 =( LENGTH_UNIT ( ) NAMED_UNIT ( * ) SI_UNIT ( .MILLI., .METRE. ) );
#13 = SURFACE_SIDE_STYLE ('',( #51 ) ) ;
#14 = CARTESIAN_POINT ( 'NONE',  ( 6.999999999999992000, 0.0000000000000000000, -1000.000000000000000 ) ) ;
#15 =( NAMED_UNIT ( * ) SI_UNIT ( $, .STERADIAN. ) SOLID_ANGLE_UNIT ( ) );
#16 =( NAMED_UNIT ( * ) PLANE_ANGLE_UNIT ( ) SI_UNIT ( $, .RADIAN. ) );
#17 = VERTEX_POINT ( 'NONE', #25 ) ;
#18 = DIRECTION ( 'NONE',  ( 1.000000000000000000, 0.0000000000000000000, 0.0000000000000000000 ) ) ;
#19 = FILL_AREA_STYLE_COLOUR ( '', #49 ) ;
#20 = CARTESIAN_POINT ( 'NONE',  ( 0.0000000000000000000, 0.0000000000000000000, 0.0000000000000000000 ) ) ;
#21 = DIRECTION ( 'NONE',  ( 0.0000000000000000000, -0.0000000000000000000, 1.000000000000000000 ) ) ;
#22 = FILL_AREA_STYLE ('',( #19 ) ) ;
#23 = SURFACE_STYLE_USAGE ( .BOTH. , #13 ) ;
#24 = DIRECTION ( 'NONE',  ( 0.0000000000000000000, 0.0000000000000000000, -1.000000000000000000 ) ) ;
#25 = CARTESIAN_POINT ( 'NONE',  ( 6.999999999999999100, 0.0000000000000000000, 0.0000000000000000000 ) ) ;
#26 = CARTESIAN_POINT ( 'NONE',  ( 0.0000000000000000000, 0.0000000000000000000, 18.26174999999999200 ) ) ;
#27 = FILL_AREA_STYLE_COLOUR ( '', #62 ) ;
#28 = SURFACE_SIDE_STYLE ('',( #63 ) ) ;
#29 = SURFACE_STYLE_USAGE ( .BOTH. , #28 ) ;
#30 = FILL_AREA_STYLE ('',( #27 ) ) ;
#31 = DIRECTION ( 'NONE',  ( 1.000000000000000000, 0.0000000000000000000, 0.0000000000000000000 ) ) ;
#32 = DIRECTION ( 'NONE',  ( -0.0000000000000000000, -0.0000000000000000000, 1.000000000000000000 ) ) ;
#33 =( LENGTH_UNIT ( ) NAMED_UNIT ( * ) SI_UNIT ( .MILLI., .METRE. ) );
#34 =( NAMED_UNIT ( * ) PLANE_ANGLE_UNIT ( ) SI_UNIT ( $, .RADIAN. ) );
#35 =( NAMED_UNIT ( * ) SI_UNIT ( $, .STERADIAN. ) SOLID_ANGLE_UNIT ( ) );
#36 =( NAMED_UNIT ( * ) SI_UNIT ( $, .STERADIAN. ) SOLID_ANGLE_UNIT ( ) );
#37 =( NAMED_UNIT ( * ) PLANE_ANGLE_UNIT ( ) SI_UNIT ( $, .RADIAN. ) );
#38 =( LENGTH_UNIT ( ) NAMED_UNIT ( * ) SI_UNIT ( .MILLI., .METRE. ) );
#39 = CARTESIAN_POINT ( 'NONE',  ( 0.0000000000000000000, 0.0000000000000000000, 0.0000000000000000000 ) ) ;
#40 = DIRECTION ( 'NONE',  ( 0.0000000000000000000, 0.0000000000000000000, 1.000000000000000000 ) ) ;
#41 = DIRECTION ( 'NONE',  ( 1.000000000000000000, 0.0000000000000000000, 0.0000000000000000000 ) ) ;
#42 = APPLICATION_CONTEXT ( 'automotive_design' ) ;
#43 = APPLICATION_PROTOCOL_DEFINITION ( 'draft international standard', 'automotive_design', 1998, #42 ) ;
#44 = PRODUCT_CONTEXT ( 'NONE', #42, 'mechanical' ) ;
#45 = APPLICATION_CONTEXT ( 'automotive_design' ) ;
#46 = APPLICATION_PROTOCOL_DEFINITION ( 'draft international standard', 'automotive_design', 1998, #45 ) ;
#47 = CIRCLE ( 'NONE', #89, 6.999999999999999100 ) ;
#48 = EDGE_LOOP ( 'NONE', ( #57 ) ) ;
#49 = COLOUR_RGB ( '',0.7529411764705882200, 0.7529411764705882200, 0.7529411764705882200 ) ;
#50 = FACE_OUTER_BOUND ( 'NONE', #48, .T. ) ;
#51 = SURFACE_STYLE_FILL_AREA ( #22 ) ;
#52 = PRESENTATION_STYLE_ASSIGNMENT (( #23 ) ) ;
#53 = EDGE_LOOP ( 'NONE', ( #70 ) ) ;
#54 = EDGE_LOOP ( 'NONE', ( #68 ) ) ;
#55 = CYLINDRICAL_SURFACE ( 'NONE', #90, 6.999999999999995600 ) ;
#56 = EDGE_LOOP ( 'NONE', ( #64 ) ) ;
#57 = ORIENTED_EDGE ( 'NONE', *, *, #92, .F. ) ;
#58 = CLOSED_SHELL ( 'NONE', ( #75, #77, #76 ) ) ;
#59 = FACE_OUTER_BOUND ( 'NONE', #53, .T. ) ;
#60 = CIRCLE ( 'NONE', #97, 6.999999999999992000 ) ;
#61 = FACE_OUTER_BOUND ( 'NONE', #54, .T. ) ;
#62 = COLOUR_RGB ( '',0.7529411764705882200, 0.7529411764705882200, 0.7529411764705882200 ) ;
#63 = SURFACE_STYLE_FILL_AREA ( #30 ) ;
#64 = ORIENTED_EDGE ( 'NONE', *, *, #92, .T. ) ;
#65 =( GEOMETRIC_REPRESENTATION_CONTEXT ( 3 ) GLOBAL_UNCERTAINTY_ASSIGNED_CONTEXT ( ( #81 ) ) GLOBAL_UNIT_ASSIGNED_CONTEXT ( ( #12, #16, #15 ) ) REPRESENTATION_CONTEXT ( 'NONE', 'WORKASPACE' ) );
#66 = PRESENTATION_STYLE_ASSIGNMENT (( #29 ) ) ;
#67 =( GEOMETRIC_REPRESENTATION_CONTEXT ( 3 ) GLOBAL_UNCERTAINTY_ASSIGNED_CONTEXT ( ( #83 ) ) GLOBAL_UNIT_ASSIGNED_CONTEXT ( ( #33, #34, #35 ) ) REPRESENTATION_CONTEXT ( 'NONE', 'WORKASPACE' ) );
#68 = ORIENTED_EDGE ( 'NONE', *, *, #98, .F. ) ;
#69 = FACE_OUTER_BOUND ( 'NONE', #56, .T. ) ;
#70 = ORIENTED_EDGE ( 'NONE', *, *, #98, .T. ) ;
#71 =( GEOMETRIC_REPRESENTATION_CONTEXT ( 3 ) GLOBAL_UNCERTAINTY_ASSIGNED_CONTEXT ( ( #82 ) ) GLOBAL_UNIT_ASSIGNED_CONTEXT ( ( #38, #37, #36 ) ) REPRESENTATION_CONTEXT ( 'NONE', 'WORKASPACE' ) );
#72 = SHAPE_DEFINITION_REPRESENTATION ( #74, #80 ) ;
#73 = PRODUCT_DEFINITION_CONTEXT ( 'detailed design', #45, 'design' ) ;
#74 = PRODUCT_DEFINITION_SHAPE ( 'NONE', 'NONE',  #91 ) ;
#75 = ADVANCED_FACE ( 'NONE', ( #50, #59 ), #55, .T. ) ;
#76 = ADVANCED_FACE ( 'NONE', ( #69 ), #1, .F. ) ;
#77 = ADVANCED_FACE ( 'NONE', ( #61 ), #6, .F. ) ;
#78 = PRODUCT ( 'CWE-014-_-h7-1000-ltk', 'CWE-014-_-h7-1000-ltk', '', ( #44 ) ) ;
#79 = MANIFOLD_SOLID_BREP ( 'body', #58 ) ;
#80 = ADVANCED_BREP_SHAPE_REPRESENTATION ( 'CWE-014-_-h7-1000-ltk', ( #79, #93 ), #67 ) ;
#81 = UNCERTAINTY_MEASURE_WITH_UNIT (LENGTH_MEASURE( 1.000000000000000100E-005 ), #12, 'distance_accuracy_value', 'NONE');
#82 = UNCERTAINTY_MEASURE_WITH_UNIT (LENGTH_MEASURE( 1.000000000000000100E-005 ), #38, 'distance_accuracy_value', 'NONE');
#83 = UNCERTAINTY_MEASURE_WITH_UNIT (LENGTH_MEASURE( 1.000000000000000100E-005 ), #33, 'distance_accuracy_value', 'NONE');
#84 = AXIS2_PLACEMENT_3D ( 'NONE', #4, #21, #18 ) ;
#85 = MECHANICAL_DESIGN_GEOMETRIC_PRESENTATION_REPRESENTATION (  '', ( #99 ), #71 ) ;
#86 = PRODUCT_DEFINITION_FORMATION_WITH_SPECIFIED_SOURCE ( 'ANY', '', #78, .NOT_KNOWN. ) ;
#87 = PRODUCT_RELATED_PRODUCT_CATEGORY ( 'part', '', ( #78 ) ) ;
#88 = PRESENTATION_LAYER_ASSIGNMENT (  '', '', ( #94 ) ) ;
#89 = AXIS2_PLACEMENT_3D ( 'NONE', #20, #11, #10 ) ;
#90 = AXIS2_PLACEMENT_3D ( 'NONE', #26, #5, #2 ) ;
#91 = PRODUCT_DEFINITION ( 'UNKNOWN', '', #86, #73 ) ;
#92 = EDGE_CURVE ( 'NONE', #17, #17, #47, .T. ) ;
#93 = AXIS2_PLACEMENT_3D ( 'NONE', #39, #40, #41 ) ;
#94 = STYLED_ITEM ( 'NONE', ( #52 ), #79 ) ;
#95 = AXIS2_PLACEMENT_3D ( 'NONE', #3, #24, #8 ) ;
#96 = MECHANICAL_DESIGN_GEOMETRIC_PRESENTATION_REPRESENTATION (  '', ( #94 ), #65 ) ;
#97 = AXIS2_PLACEMENT_3D ( 'NONE', #7, #32, #31 ) ;
#98 = EDGE_CURVE ( 'NONE', #9, #9, #60, .T. ) ;
#99 = STYLED_ITEM ( 'NONE', ( #66 ), #80 ) ;
#100 = PRESENTATION_LAYER_ASSIGNMENT (  '', '', ( #99 ) ) ;
ENDSEC;
END-ISO-10303-21;
