ISO-10303-21;
HEADER;
FILE_DESCRIPTION (( 'STEP AP214' ),
    '1' );
FILE_NAME ('CWE-015-_-h7-1000-ltk.step',
    '2020-09-09T10:22:11',
    ( '' ),
    ( '' ),
    'SwSTEP 2.0',
    'SolidWorks 2010',
    '' );
FILE_SCHEMA (( 'AUTOMOTIVE_DESIGN' ));
ENDSEC;

DATA;
#1 = STYLED_ITEM ( 'NONE', ( #60 ), #135 ) ;
#2 = MECHANICAL_DESIGN_GEOMETRIC_PRESENTATION_REPRESENTATION (  '', ( #1 ), #58 ) ;
#3 = EDGE_CURVE ( 'NONE', #67, #68, #29, .T. ) ;
#4 = PRODUCT_DEFINITION ( 'UNKNOWN', '', #20, #130 ) ;
#5 = AXIS2_PLACEMENT_3D ( 'NONE', #80, #79, #76 ) ;
#6 = PRODUCT_RELATED_PRODUCT_CATEGORY ( 'part', '', ( #25 ) ) ;
#7 = MECHANICAL_DESIGN_GEOMETRIC_PRESENTATION_REPRESENTATION (  '', ( #8 ), #53 ) ;
#8 = STYLED_ITEM ( 'NONE', ( #52 ), #133 ) ;
#9 = AXIS2_PLACEMENT_3D ( 'NONE', #122, #123, #124 ) ;
#10 = AXIS2_PLACEMENT_3D ( 'NONE', #70, #88, #81 ) ;
#11 = PRESENTATION_LAYER_ASSIGNMENT (  '', '', ( #8 ) ) ;
#12 = AXIS2_PLACEMENT_3D ( 'NONE', #105, #104, #103 ) ;
#13 = AXIS2_PLACEMENT_3D ( 'NONE', #82, #91, #92 ) ;
#14 = AXIS2_PLACEMENT_3D ( 'NONE', #75, #74, #73 ) ;
#15 = AXIS2_PLACEMENT_3D ( 'NONE', #102, #101, #94 ) ;
#16 = EDGE_CURVE ( 'NONE', #68, #67, #46, .T. ) ;
#17 = EDGE_CURVE ( 'NONE', #68, #71, #30, .T. ) ;
#18 = AXIS2_PLACEMENT_3D ( 'NONE', #100, #113, #114 ) ;
#19 = EDGE_CURVE ( 'NONE', #78, #71, #48, .T. ) ;
#20 = PRODUCT_DEFINITION_FORMATION_WITH_SPECIFIED_SOURCE ( 'ANY', '', #25, .NOT_KNOWN. ) ;
#21 = EDGE_CURVE ( 'NONE', #71, #78, #50, .T. ) ;
#22 = EDGE_CURVE ( 'NONE', #67, #78, #47, .T. ) ;
#23 = AXIS2_PLACEMENT_3D ( 'NONE', #106, #109, #110 ) ;
#24 = PRESENTATION_LAYER_ASSIGNMENT (  '', '', ( #1 ) ) ;
#25 = PRODUCT ( 'CWE-015-_-h7-1000-ltk', 'CWE-015-_-h7-1000-ltk', '', ( #127 ) ) ;
#26 = ORIENTED_EDGE ( 'NONE', *, *, #22, .F. ) ;
#27 = FACE_OUTER_BOUND ( 'NONE', #63, .T. ) ;
#28 = ORIENTED_EDGE ( 'NONE', *, *, #17, .F. ) ;
#29 = CIRCLE ( 'NONE', #5, 7.499999999999992900 ) ;
#30 = LINE ( 'NONE', #69, #32 ) ;
#31 = VECTOR ( 'NONE', #90, 1000.000000000000000 ) ;
#32 = VECTOR ( 'NONE', #72, 1000.000000000000000 ) ;
#33 = CLOSED_SHELL ( 'NONE', ( #137, #138, #140, #139 ) ) ;
#34 = ORIENTED_EDGE ( 'NONE', *, *, #21, .F. ) ;
#35 = EDGE_LOOP ( 'NONE', ( #62, #40 ) ) ;
#36 = ORIENTED_EDGE ( 'NONE', *, *, #16, .T. ) ;
#37 = ORIENTED_EDGE ( 'NONE', *, *, #22, .T. ) ;
#38 = CYLINDRICAL_SURFACE ( 'NONE', #12, 7.499999999999996400 ) ;
#39 = EDGE_LOOP ( 'NONE', ( #41, #42 ) ) ;
#40 = ORIENTED_EDGE ( 'NONE', *, *, #19, .T. ) ;
#41 = ORIENTED_EDGE ( 'NONE', *, *, #16, .F. ) ;
#42 = ORIENTED_EDGE ( 'NONE', *, *, #3, .F. ) ;
#43 = ORIENTED_EDGE ( 'NONE', *, *, #17, .T. ) ;
#44 = ORIENTED_EDGE ( 'NONE', *, *, #3, .T. ) ;
#45 = ORIENTED_EDGE ( 'NONE', *, *, #19, .F. ) ;
#46 = CIRCLE ( 'NONE', #14, 7.499999999999992900 ) ;
#47 = LINE ( 'NONE', #93, #31 ) ;
#48 = CIRCLE ( 'NONE', #10, 7.500000000000000000 ) ;
#49 = COLOUR_RGB ( '',0.7529411764705882200, 0.7529411764705882200, 0.7529411764705882200 ) ;
#50 = CIRCLE ( 'NONE', #13, 7.500000000000000000 ) ;
#51 = SURFACE_STYLE_FILL_AREA ( #86 ) ;
#52 = PRESENTATION_STYLE_ASSIGNMENT (( #97 ) ) ;
#53 =( GEOMETRIC_REPRESENTATION_CONTEXT ( 3 ) GLOBAL_UNCERTAINTY_ASSIGNED_CONTEXT ( ( #132 ) ) GLOBAL_UNIT_ASSIGNED_CONTEXT ( ( #96, #95, #99 ) ) REPRESENTATION_CONTEXT ( 'NONE', 'WORKASPACE' ) );
#54 = CYLINDRICAL_SURFACE ( 'NONE', #15, 7.499999999999996400 ) ;
#55 = FACE_OUTER_BOUND ( 'NONE', #66, .T. ) ;
#56 = FACE_OUTER_BOUND ( 'NONE', #39, .T. ) ;
#57 = FACE_OUTER_BOUND ( 'NONE', #35, .T. ) ;
#58 =( GEOMETRIC_REPRESENTATION_CONTEXT ( 3 ) GLOBAL_UNCERTAINTY_ASSIGNED_CONTEXT ( ( #134 ) ) GLOBAL_UNIT_ASSIGNED_CONTEXT ( ( #119, #120, #121 ) ) REPRESENTATION_CONTEXT ( 'NONE', 'WORKASPACE' ) );
#59 = SHAPE_DEFINITION_REPRESENTATION ( #131, #135 ) ;
#60 = PRESENTATION_STYLE_ASSIGNMENT (( #118 ) ) ;
#61 = SURFACE_STYLE_FILL_AREA ( #116 ) ;
#62 = ORIENTED_EDGE ( 'NONE', *, *, #21, .T. ) ;
#63 = EDGE_LOOP ( 'NONE', ( #36, #37, #34, #28 ) ) ;
#64 =( GEOMETRIC_REPRESENTATION_CONTEXT ( 3 ) GLOBAL_UNCERTAINTY_ASSIGNED_CONTEXT ( ( #136 ) ) GLOBAL_UNIT_ASSIGNED_CONTEXT ( ( #111, #112, #115 ) ) REPRESENTATION_CONTEXT ( 'NONE', 'WORKASPACE' ) );
#65 = COLOUR_RGB ( '',0.7529411764705882200, 0.7529411764705882200, 0.7529411764705882200 ) ;
#66 = EDGE_LOOP ( 'NONE', ( #26, #44, #43, #45 ) ) ;
#67 = VERTEX_POINT ( 'NONE', #87 ) ;
#68 = VERTEX_POINT ( 'NONE', #84 ) ;
#69 = CARTESIAN_POINT ( 'NONE',  ( 7.499999999999996400, 0.0000000000000000000, 18.26174999999999200 ) ) ;
#70 = CARTESIAN_POINT ( 'NONE',  ( 0.0000000000000000000, 0.0000000000000000000, 0.0000000000000000000 ) ) ;
#71 = VERTEX_POINT ( 'NONE', #89 ) ;
#72 = DIRECTION ( 'NONE',  ( -0.0000000000000000000, -0.0000000000000000000, 1.000000000000000000 ) ) ;
#73 = DIRECTION ( 'NONE',  ( 1.000000000000000000, 0.0000000000000000000, 0.0000000000000000000 ) ) ;
#74 = DIRECTION ( 'NONE',  ( -0.0000000000000000000, -0.0000000000000000000, 1.000000000000000000 ) ) ;
#75 = CARTESIAN_POINT ( 'NONE',  ( 0.0000000000000000000, 0.0000000000000000000, -1000.000000000000000 ) ) ;
#76 = DIRECTION ( 'NONE',  ( 1.000000000000000000, 0.0000000000000000000, 0.0000000000000000000 ) ) ;
#77 = PLANE ( 'NONE',  #18 ) ;
#78 = VERTEX_POINT ( 'NONE', #85 ) ;
#79 = DIRECTION ( 'NONE',  ( -0.0000000000000000000, -0.0000000000000000000, 1.000000000000000000 ) ) ;
#80 = CARTESIAN_POINT ( 'NONE',  ( 0.0000000000000000000, 0.0000000000000000000, -1000.000000000000000 ) ) ;
#81 = DIRECTION ( 'NONE',  ( 1.000000000000000000, 0.0000000000000000000, 0.0000000000000000000 ) ) ;
#82 = CARTESIAN_POINT ( 'NONE',  ( 0.0000000000000000000, 0.0000000000000000000, 0.0000000000000000000 ) ) ;
#83 = FILL_AREA_STYLE_COLOUR ( '', #49 ) ;
#84 = CARTESIAN_POINT ( 'NONE',  ( 7.499999999999992900, 0.0000000000000000000, -1000.000000000000000 ) ) ;
#85 = CARTESIAN_POINT ( 'NONE',  ( -7.500000000000000000, 9.184850993605147900E-016, 0.0000000000000000000 ) ) ;
#86 = FILL_AREA_STYLE ('',( #83 ) ) ;
#87 = CARTESIAN_POINT ( 'NONE',  ( -7.499999999999992900, 9.184850993605142000E-016, -1000.000000000000000 ) ) ;
#88 = DIRECTION ( 'NONE',  ( -0.0000000000000000000, -0.0000000000000000000, 1.000000000000000000 ) ) ;
#89 = CARTESIAN_POINT ( 'NONE',  ( 7.500000000000000000, 0.0000000000000000000, 0.0000000000000000000 ) ) ;
#90 = DIRECTION ( 'NONE',  ( -0.0000000000000000000, -0.0000000000000000000, 1.000000000000000000 ) ) ;
#91 = DIRECTION ( 'NONE',  ( -0.0000000000000000000, -0.0000000000000000000, 1.000000000000000000 ) ) ;
#92 = DIRECTION ( 'NONE',  ( 1.000000000000000000, 0.0000000000000000000, 0.0000000000000000000 ) ) ;
#93 = CARTESIAN_POINT ( 'NONE',  ( -7.499999999999996400, 9.184850993605144000E-016, 18.26174999999999200 ) ) ;
#94 = DIRECTION ( 'NONE',  ( 1.000000000000000000, 0.0000000000000000000, 0.0000000000000000000 ) ) ;
#95 =( NAMED_UNIT ( * ) PLANE_ANGLE_UNIT ( ) SI_UNIT ( $, .RADIAN. ) );
#96 =( LENGTH_UNIT ( ) NAMED_UNIT ( * ) SI_UNIT ( .MILLI., .METRE. ) );
#97 = SURFACE_STYLE_USAGE ( .BOTH. , #98 ) ;
#98 = SURFACE_SIDE_STYLE ('',( #51 ) ) ;
#99 =( NAMED_UNIT ( * ) SI_UNIT ( $, .STERADIAN. ) SOLID_ANGLE_UNIT ( ) );
#100 = CARTESIAN_POINT ( 'NONE',  ( 0.0000000000000000000, 7.499999999999992900, -1000.000000000000000 ) ) ;
#101 = DIRECTION ( 'NONE',  ( -0.0000000000000000000, -0.0000000000000000000, 1.000000000000000000 ) ) ;
#102 = CARTESIAN_POINT ( 'NONE',  ( 0.0000000000000000000, 0.0000000000000000000, 18.26174999999999200 ) ) ;
#103 = DIRECTION ( 'NONE',  ( 1.000000000000000000, 0.0000000000000000000, 0.0000000000000000000 ) ) ;
#104 = DIRECTION ( 'NONE',  ( -0.0000000000000000000, -0.0000000000000000000, 1.000000000000000000 ) ) ;
#105 = CARTESIAN_POINT ( 'NONE',  ( 0.0000000000000000000, 0.0000000000000000000, 18.26174999999999200 ) ) ;
#106 = CARTESIAN_POINT ( 'NONE',  ( 0.0000000000000000000, 7.500000000000000000, 0.0000000000000000000 ) ) ;
#107 = PLANE ( 'NONE',  #23 ) ;
#108 = FILL_AREA_STYLE_COLOUR ( '', #65 ) ;
#109 = DIRECTION ( 'NONE',  ( 0.0000000000000000000, 0.0000000000000000000, -1.000000000000000000 ) ) ;
#110 = DIRECTION ( 'NONE',  ( -1.000000000000000000, 0.0000000000000000000, -0.0000000000000000000 ) ) ;
#111 =( LENGTH_UNIT ( ) NAMED_UNIT ( * ) SI_UNIT ( .MILLI., .METRE. ) );
#112 =( NAMED_UNIT ( * ) PLANE_ANGLE_UNIT ( ) SI_UNIT ( $, .RADIAN. ) );
#113 = DIRECTION ( 'NONE',  ( 0.0000000000000000000, -0.0000000000000000000, 1.000000000000000000 ) ) ;
#114 = DIRECTION ( 'NONE',  ( 1.000000000000000000, 0.0000000000000000000, 0.0000000000000000000 ) ) ;
#115 =( NAMED_UNIT ( * ) SI_UNIT ( $, .STERADIAN. ) SOLID_ANGLE_UNIT ( ) );
#116 = FILL_AREA_STYLE ('',( #108 ) ) ;
#117 = SURFACE_SIDE_STYLE ('',( #61 ) ) ;
#118 = SURFACE_STYLE_USAGE ( .BOTH. , #117 ) ;
#119 =( LENGTH_UNIT ( ) NAMED_UNIT ( * ) SI_UNIT ( .MILLI., .METRE. ) );
#120 =( NAMED_UNIT ( * ) PLANE_ANGLE_UNIT ( ) SI_UNIT ( $, .RADIAN. ) );
#121 =( NAMED_UNIT ( * ) SI_UNIT ( $, .STERADIAN. ) SOLID_ANGLE_UNIT ( ) );
#122 = CARTESIAN_POINT ( 'NONE',  ( 0.0000000000000000000, 0.0000000000000000000, 0.0000000000000000000 ) ) ;
#123 = DIRECTION ( 'NONE',  ( 0.0000000000000000000, 0.0000000000000000000, 1.000000000000000000 ) ) ;
#124 = DIRECTION ( 'NONE',  ( 1.000000000000000000, 0.0000000000000000000, 0.0000000000000000000 ) ) ;
#125 = APPLICATION_CONTEXT ( 'automotive_design' ) ;
#126 = APPLICATION_PROTOCOL_DEFINITION ( 'draft international standard', 'automotive_design', 1998, #125 ) ;
#127 = PRODUCT_CONTEXT ( 'NONE', #125, 'mechanical' ) ;
#128 = APPLICATION_CONTEXT ( 'automotive_design' ) ;
#129 = APPLICATION_PROTOCOL_DEFINITION ( 'draft international standard', 'automotive_design', 1998, #128 ) ;
#130 = PRODUCT_DEFINITION_CONTEXT ( 'detailed design', #128, 'design' ) ;
#131 = PRODUCT_DEFINITION_SHAPE ( 'NONE', 'NONE',  #4 ) ;
#132 = UNCERTAINTY_MEASURE_WITH_UNIT (LENGTH_MEASURE( 1.000000000000000100E-005 ), #96, 'distance_accuracy_value', 'NONE');
#133 = MANIFOLD_SOLID_BREP ( 'body', #33 ) ;
#134 = UNCERTAINTY_MEASURE_WITH_UNIT (LENGTH_MEASURE( 1.000000000000000100E-005 ), #119, 'distance_accuracy_value', 'NONE');
#135 = ADVANCED_BREP_SHAPE_REPRESENTATION ( 'CWE-015-_-h7-1000-ltk', ( #133, #9 ), #64 ) ;
#136 = UNCERTAINTY_MEASURE_WITH_UNIT (LENGTH_MEASURE( 1.000000000000000100E-005 ), #111, 'distance_accuracy_value', 'NONE');
#137 = ADVANCED_FACE ( 'NONE', ( #27 ), #54, .T. ) ;
#138 = ADVANCED_FACE ( 'NONE', ( #55 ), #38, .T. ) ;
#139 = ADVANCED_FACE ( 'NONE', ( #57 ), #107, .F. ) ;
#140 = ADVANCED_FACE ( 'NONE', ( #56 ), #77, .F. ) ;
ENDSEC;
END-ISO-10303-21;
