ISO-10303-21;
HEADER;
FILE_DESCRIPTION (( 'STEP AP214' ),
    '1' );
FILE_NAME ('CWE-016-_-h7-1000-ltk.step',
    '2020-09-09T10:22:44',
    ( '' ),
    ( '' ),
    'SwSTEP 2.0',
    'SolidWorks 2010',
    '' );
FILE_SCHEMA (( 'AUTOMOTIVE_DESIGN' ));
ENDSEC;

DATA;
#1 =( NAMED_UNIT ( * ) PLANE_ANGLE_UNIT ( ) SI_UNIT ( $, .RADIAN. ) );
#2 = DIRECTION ( 'NONE',  ( -0.0000000000000000000, -0.0000000000000000000, 1.000000000000000000 ) ) ;
#3 = VERTEX_POINT ( 'NONE', #34 ) ;
#4 =( NAMED_UNIT ( * ) SI_UNIT ( $, .STERADIAN. ) SOLID_ANGLE_UNIT ( ) );
#5 =( NAMED_UNIT ( * ) PLANE_ANGLE_UNIT ( ) SI_UNIT ( $, .RADIAN. ) );
#6 =( LENGTH_UNIT ( ) NAMED_UNIT ( * ) SI_UNIT ( .MILLI., .METRE. ) );
#7 = SURFACE_STYLE_USAGE ( .BOTH. , #8 ) ;
#8 = SURFACE_SIDE_STYLE ('',( #61 ) ) ;
#9 = FILL_AREA_STYLE ('',( #12 ) ) ;
#10 = DIRECTION ( 'NONE',  ( -1.000000000000000000, 0.0000000000000000000, -0.0000000000000000000 ) ) ;
#11 = DIRECTION ( 'NONE',  ( 0.0000000000000000000, 0.0000000000000000000, -1.000000000000000000 ) ) ;
#12 = FILL_AREA_STYLE_COLOUR ( '', #58 ) ;
#13 = VERTEX_POINT ( 'NONE', #36 ) ;
#14 = DIRECTION ( 'NONE',  ( 1.000000000000000000, 0.0000000000000000000, 0.0000000000000000000 ) ) ;
#15 = DIRECTION ( 'NONE',  ( 0.0000000000000000000, -0.0000000000000000000, 1.000000000000000000 ) ) ;
#16 = FILL_AREA_STYLE ('',( #38 ) ) ;
#17 = PLANE ( 'NONE',  #96 ) ;
#18 = CARTESIAN_POINT ( 'NONE',  ( 0.0000000000000000000, 7.999999999999992900, -1000.000000000000000 ) ) ;
#19 = DIRECTION ( 'NONE',  ( -0.0000000000000000000, -0.0000000000000000000, 1.000000000000000000 ) ) ;
#20 = DIRECTION ( 'NONE',  ( 1.000000000000000000, 0.0000000000000000000, 0.0000000000000000000 ) ) ;
#21 = DIRECTION ( 'NONE',  ( 1.000000000000000000, 0.0000000000000000000, 0.0000000000000000000 ) ) ;
#22 = DIRECTION ( 'NONE',  ( -0.0000000000000000000, -0.0000000000000000000, 1.000000000000000000 ) ) ;
#23 = PLANE ( 'NONE',  #97 ) ;
#24 = CARTESIAN_POINT ( 'NONE',  ( 0.0000000000000000000, 8.000000000000000000, 0.0000000000000000000 ) ) ;
#25 = DIRECTION ( 'NONE',  ( 1.000000000000000000, 0.0000000000000000000, 0.0000000000000000000 ) ) ;
#26 = CARTESIAN_POINT ( 'NONE',  ( 0.0000000000000000000, 0.0000000000000000000, 18.26174999999999200 ) ) ;
#27 = CARTESIAN_POINT ( 'NONE',  ( 0.0000000000000000000, 0.0000000000000000000, 0.0000000000000000000 ) ) ;
#28 = CARTESIAN_POINT ( 'NONE',  ( 0.0000000000000000000, 0.0000000000000000000, -1000.000000000000000 ) ) ;
#29 =( NAMED_UNIT ( * ) SI_UNIT ( $, .STERADIAN. ) SOLID_ANGLE_UNIT ( ) );
#30 =( LENGTH_UNIT ( ) NAMED_UNIT ( * ) SI_UNIT ( .MILLI., .METRE. ) );
#31 =( NAMED_UNIT ( * ) PLANE_ANGLE_UNIT ( ) SI_UNIT ( $, .RADIAN. ) );
#32 =( NAMED_UNIT ( * ) SI_UNIT ( $, .STERADIAN. ) SOLID_ANGLE_UNIT ( ) );
#33 = SURFACE_STYLE_USAGE ( .BOTH. , #37 ) ;
#34 = CARTESIAN_POINT ( 'NONE',  ( 7.999999999999992900, 0.0000000000000000000, -1000.000000000000000 ) ) ;
#35 =( LENGTH_UNIT ( ) NAMED_UNIT ( * ) SI_UNIT ( .MILLI., .METRE. ) );
#36 = CARTESIAN_POINT ( 'NONE',  ( 8.000000000000000000, 0.0000000000000000000, 0.0000000000000000000 ) ) ;
#37 = SURFACE_SIDE_STYLE ('',( #60 ) ) ;
#38 = FILL_AREA_STYLE_COLOUR ( '', #63 ) ;
#39 = DIRECTION ( 'NONE',  ( 1.000000000000000000, 0.0000000000000000000, 0.0000000000000000000 ) ) ;
#40 = DIRECTION ( 'NONE',  ( 0.0000000000000000000, 0.0000000000000000000, 1.000000000000000000 ) ) ;
#41 = CARTESIAN_POINT ( 'NONE',  ( 0.0000000000000000000, 0.0000000000000000000, 0.0000000000000000000 ) ) ;
#42 = APPLICATION_CONTEXT ( 'automotive_design' ) ;
#43 = APPLICATION_PROTOCOL_DEFINITION ( 'draft international standard', 'automotive_design', 1998, #42 ) ;
#44 = PRODUCT_CONTEXT ( 'NONE', #42, 'mechanical' ) ;
#45 = APPLICATION_CONTEXT ( 'automotive_design' ) ;
#46 = APPLICATION_PROTOCOL_DEFINITION ( 'draft international standard', 'automotive_design', 1998, #45 ) ;
#47 = PRODUCT ( 'CWE-016-_-h7-1000-ltk', 'CWE-016-_-h7-1000-ltk', '', ( #44 ) ) ;
#48 = SHAPE_DEFINITION_REPRESENTATION ( #75, #82 ) ;
#49 =( GEOMETRIC_REPRESENTATION_CONTEXT ( 3 ) GLOBAL_UNCERTAINTY_ASSIGNED_CONTEXT ( ( #84 ) ) GLOBAL_UNIT_ASSIGNED_CONTEXT ( ( #30, #31, #32 ) ) REPRESENTATION_CONTEXT ( 'NONE', 'WORKASPACE' ) );
#50 = PRESENTATION_STYLE_ASSIGNMENT (( #33 ) ) ;
#51 = EDGE_LOOP ( 'NONE', ( #68 ) ) ;
#52 = FACE_OUTER_BOUND ( 'NONE', #53, .T. ) ;
#53 = EDGE_LOOP ( 'NONE', ( #69 ) ) ;
#54 = CYLINDRICAL_SURFACE ( 'NONE', #86, 7.999999999999996400 ) ;
#55 = FACE_OUTER_BOUND ( 'NONE', #51, .T. ) ;
#56 = CIRCLE ( 'NONE', #100, 7.999999999999992900 ) ;
#57 = FACE_OUTER_BOUND ( 'NONE', #65, .T. ) ;
#58 = COLOUR_RGB ( '',0.7529411764705882200, 0.7529411764705882200, 0.7529411764705882200 ) ;
#59 = CIRCLE ( 'NONE', #94, 8.000000000000000000 ) ;
#60 = SURFACE_STYLE_FILL_AREA ( #16 ) ;
#61 = SURFACE_STYLE_FILL_AREA ( #9 ) ;
#62 =( GEOMETRIC_REPRESENTATION_CONTEXT ( 3 ) GLOBAL_UNCERTAINTY_ASSIGNED_CONTEXT ( ( #85 ) ) GLOBAL_UNIT_ASSIGNED_CONTEXT ( ( #35, #1, #29 ) ) REPRESENTATION_CONTEXT ( 'NONE', 'WORKASPACE' ) );
#63 = COLOUR_RGB ( '',0.7529411764705882200, 0.7529411764705882200, 0.7529411764705882200 ) ;
#64 =( GEOMETRIC_REPRESENTATION_CONTEXT ( 3 ) GLOBAL_UNCERTAINTY_ASSIGNED_CONTEXT ( ( #83 ) ) GLOBAL_UNIT_ASSIGNED_CONTEXT ( ( #6, #5, #4 ) ) REPRESENTATION_CONTEXT ( 'NONE', 'WORKASPACE' ) );
#65 = EDGE_LOOP ( 'NONE', ( #67 ) ) ;
#66 = EDGE_LOOP ( 'NONE', ( #70 ) ) ;
#67 = ORIENTED_EDGE ( 'NONE', *, *, #77, .T. ) ;
#68 = ORIENTED_EDGE ( 'NONE', *, *, #76, .T. ) ;
#69 = ORIENTED_EDGE ( 'NONE', *, *, #77, .F. ) ;
#70 = ORIENTED_EDGE ( 'NONE', *, *, #76, .F. ) ;
#71 = CLOSED_SHELL ( 'NONE', ( #78, #79, #80 ) ) ;
#72 = PRESENTATION_STYLE_ASSIGNMENT (( #7 ) ) ;
#73 = FACE_OUTER_BOUND ( 'NONE', #66, .T. ) ;
#74 = PRODUCT_DEFINITION_CONTEXT ( 'detailed design', #45, 'design' ) ;
#75 = PRODUCT_DEFINITION_SHAPE ( 'NONE', 'NONE',  #89 ) ;
#76 = EDGE_CURVE ( 'NONE', #3, #3, #56, .T. ) ;
#77 = EDGE_CURVE ( 'NONE', #13, #13, #59, .T. ) ;
#78 = ADVANCED_FACE ( 'NONE', ( #52, #55 ), #54, .T. ) ;
#79 = ADVANCED_FACE ( 'NONE', ( #73 ), #17, .F. ) ;
#80 = ADVANCED_FACE ( 'NONE', ( #57 ), #23, .F. ) ;
#81 = MANIFOLD_SOLID_BREP ( 'body', #71 ) ;
#82 = ADVANCED_BREP_SHAPE_REPRESENTATION ( 'CWE-016-_-h7-1000-ltk', ( #81, #93 ), #62 ) ;
#83 = UNCERTAINTY_MEASURE_WITH_UNIT (LENGTH_MEASURE( 1.000000000000000100E-005 ), #6, 'distance_accuracy_value', 'NONE');
#84 = UNCERTAINTY_MEASURE_WITH_UNIT (LENGTH_MEASURE( 1.000000000000000100E-005 ), #30, 'distance_accuracy_value', 'NONE');
#85 = UNCERTAINTY_MEASURE_WITH_UNIT (LENGTH_MEASURE( 1.000000000000000100E-005 ), #35, 'distance_accuracy_value', 'NONE');
#86 = AXIS2_PLACEMENT_3D ( 'NONE', #26, #19, #20 ) ;
#87 = MECHANICAL_DESIGN_GEOMETRIC_PRESENTATION_REPRESENTATION (  '', ( #95 ), #49 ) ;
#88 = PRESENTATION_LAYER_ASSIGNMENT (  '', '', ( #91 ) ) ;
#89 = PRODUCT_DEFINITION ( 'UNKNOWN', '', #99, #74 ) ;
#90 = PRESENTATION_LAYER_ASSIGNMENT (  '', '', ( #95 ) ) ;
#91 = STYLED_ITEM ( 'NONE', ( #72 ), #81 ) ;
#92 = PRODUCT_RELATED_PRODUCT_CATEGORY ( 'part', '', ( #47 ) ) ;
#93 = AXIS2_PLACEMENT_3D ( 'NONE', #41, #40, #39 ) ;
#94 = AXIS2_PLACEMENT_3D ( 'NONE', #27, #22, #21 ) ;
#95 = STYLED_ITEM ( 'NONE', ( #50 ), #82 ) ;
#96 = AXIS2_PLACEMENT_3D ( 'NONE', #18, #15, #14 ) ;
#97 = AXIS2_PLACEMENT_3D ( 'NONE', #24, #11, #10 ) ;
#98 = MECHANICAL_DESIGN_GEOMETRIC_PRESENTATION_REPRESENTATION (  '', ( #91 ), #64 ) ;
#99 = PRODUCT_DEFINITION_FORMATION_WITH_SPECIFIED_SOURCE ( 'ANY', '', #47, .NOT_KNOWN. ) ;
#100 = AXIS2_PLACEMENT_3D ( 'NONE', #28, #2, #25 ) ;
ENDSEC;
END-ISO-10303-21;
