ISO-10303-21;
HEADER;
FILE_DESCRIPTION (( 'STEP AP214' ),
    '1' );
FILE_NAME ('CWE-020-_-h7-1000-ltk.step',
    '2020-09-09T10:23:12',
    ( '' ),
    ( '' ),
    'SwSTEP 2.0',
    'SolidWorks 2010',
    '' );
FILE_SCHEMA (( 'AUTOMOTIVE_DESIGN' ));
ENDSEC;

DATA;
#1 = CLOSED_SHELL ( 'NONE', ( #44, #43, #42, #45 ) ) ;
#2 = ORIENTED_EDGE ( 'NONE', *, *, #133, .T. ) ;
#3 = COLOUR_RGB ( '',0.7529411764705882200, 0.7529411764705882200, 0.7529411764705882200 ) ;
#4 = ORIENTED_EDGE ( 'NONE', *, *, #117, .F. ) ;
#5 = SURFACE_STYLE_FILL_AREA ( #96 ) ;
#6 = ORIENTED_EDGE ( 'NONE', *, *, #128, .F. ) ;
#7 = CYLINDRICAL_SURFACE ( 'NONE', #126, 9.999999999999998200 ) ;
#8 = CYLINDRICAL_SURFACE ( 'NONE', #135, 9.999999999999998200 ) ;
#9 = FACE_OUTER_BOUND ( 'NONE', #21, .T. ) ;
#10 = ORIENTED_EDGE ( 'NONE', *, *, #139, .F. ) ;
#11 = ORIENTED_EDGE ( 'NONE', *, *, #136, .T. ) ;
#12 = FACE_OUTER_BOUND ( 'NONE', #17, .T. ) ;
#13 = FACE_OUTER_BOUND ( 'NONE', #16, .T. ) ;
#14 = ORIENTED_EDGE ( 'NONE', *, *, #117, .T. ) ;
#15 = ORIENTED_EDGE ( 'NONE', *, *, #133, .F. ) ;
#16 = EDGE_LOOP ( 'NONE', ( #11, #2, #4, #6 ) ) ;
#17 = EDGE_LOOP ( 'NONE', ( #14, #37 ) ) ;
#18 = EDGE_LOOP ( 'NONE', ( #15, #39, #41, #10 ) ) ;
#19 = ORIENTED_EDGE ( 'NONE', *, *, #129, .F. ) ;
#20 = FACE_OUTER_BOUND ( 'NONE', #18, .T. ) ;
#21 = EDGE_LOOP ( 'NONE', ( #38, #19 ) ) ;
#22 = PRESENTATION_STYLE_ASSIGNMENT (( #94 ) ) ;
#23 = VECTOR ( 'NONE', #83, 1000.000000000000000 ) ;
#24 =( GEOMETRIC_REPRESENTATION_CONTEXT ( 3 ) GLOBAL_UNCERTAINTY_ASSIGNED_CONTEXT ( ( #50 ) ) GLOBAL_UNIT_ASSIGNED_CONTEXT ( ( #93, #92, #91 ) ) REPRESENTATION_CONTEXT ( 'NONE', 'WORKASPACE' ) );
#25 = VECTOR ( 'NONE', #77, 1000.000000000000000 ) ;
#26 = LINE ( 'NONE', #78, #25 ) ;
#27 = LINE ( 'NONE', #87, #23 ) ;
#28 = CIRCLE ( 'NONE', #131, 9.999999999999998200 ) ;
#29 = CIRCLE ( 'NONE', #118, 9.999999999999998200 ) ;
#30 = SURFACE_STYLE_FILL_AREA ( #67 ) ;
#31 = CIRCLE ( 'NONE', #137, 9.999999999999998200 ) ;
#32 = CIRCLE ( 'NONE', #127, 9.999999999999998200 ) ;
#33 =( GEOMETRIC_REPRESENTATION_CONTEXT ( 3 ) GLOBAL_UNCERTAINTY_ASSIGNED_CONTEXT ( ( #51 ) ) GLOBAL_UNIT_ASSIGNED_CONTEXT ( ( #64, #63, #62 ) ) REPRESENTATION_CONTEXT ( 'NONE', 'WORKASPACE' ) );
#34 = SHAPE_DEFINITION_REPRESENTATION ( #48, #52 ) ;
#35 = PRESENTATION_STYLE_ASSIGNMENT (( #65 ) ) ;
#36 = COLOUR_RGB ( '',0.7529411764705882200, 0.7529411764705882200, 0.7529411764705882200 ) ;
#37 = ORIENTED_EDGE ( 'NONE', *, *, #139, .T. ) ;
#38 = ORIENTED_EDGE ( 'NONE', *, *, #136, .F. ) ;
#39 = ORIENTED_EDGE ( 'NONE', *, *, #129, .T. ) ;
#40 =( GEOMETRIC_REPRESENTATION_CONTEXT ( 3 ) GLOBAL_UNCERTAINTY_ASSIGNED_CONTEXT ( ( #53 ) ) GLOBAL_UNIT_ASSIGNED_CONTEXT ( ( #72, #73, #69 ) ) REPRESENTATION_CONTEXT ( 'NONE', 'WORKASPACE' ) );
#41 = ORIENTED_EDGE ( 'NONE', *, *, #128, .T. ) ;
#42 = ADVANCED_FACE ( 'NONE', ( #9 ), #108, .F. ) ;
#43 = ADVANCED_FACE ( 'NONE', ( #20 ), #7, .T. ) ;
#44 = ADVANCED_FACE ( 'NONE', ( #13 ), #8, .T. ) ;
#45 = ADVANCED_FACE ( 'NONE', ( #12 ), #100, .F. ) ;
#46 = PRODUCT ( 'CWE-020-_-h7-1000-ltk', 'CWE-020-_-h7-1000-ltk', '', ( #56 ) ) ;
#47 = PRODUCT_DEFINITION_CONTEXT ( 'detailed design', #55, 'design' ) ;
#48 = PRODUCT_DEFINITION_SHAPE ( 'NONE', 'NONE',  #138 ) ;
#49 = MANIFOLD_SOLID_BREP ( 'body', #1 ) ;
#50 = UNCERTAINTY_MEASURE_WITH_UNIT (LENGTH_MEASURE( 1.000000000000000100E-005 ), #93, 'distance_accuracy_value', 'NONE');
#51 = UNCERTAINTY_MEASURE_WITH_UNIT (LENGTH_MEASURE( 1.000000000000000100E-005 ), #64, 'distance_accuracy_value', 'NONE');
#52 = ADVANCED_BREP_SHAPE_REPRESENTATION ( 'CWE-020-_-h7-1000-ltk', ( #49, #119 ), #40 ) ;
#53 = UNCERTAINTY_MEASURE_WITH_UNIT (LENGTH_MEASURE( 1.000000000000000100E-005 ), #72, 'distance_accuracy_value', 'NONE');
#54 = APPLICATION_PROTOCOL_DEFINITION ( 'draft international standard', 'automotive_design', 1998, #55 ) ;
#55 = APPLICATION_CONTEXT ( 'automotive_design' ) ;
#56 = PRODUCT_CONTEXT ( 'NONE', #58, 'mechanical' ) ;
#57 = APPLICATION_PROTOCOL_DEFINITION ( 'draft international standard', 'automotive_design', 1998, #58 ) ;
#58 = APPLICATION_CONTEXT ( 'automotive_design' ) ;
#59 = DIRECTION ( 'NONE',  ( 1.000000000000000000, 0.0000000000000000000, 0.0000000000000000000 ) ) ;
#60 = DIRECTION ( 'NONE',  ( 0.0000000000000000000, 0.0000000000000000000, 1.000000000000000000 ) ) ;
#61 = CARTESIAN_POINT ( 'NONE',  ( 0.0000000000000000000, 0.0000000000000000000, 0.0000000000000000000 ) ) ;
#62 =( NAMED_UNIT ( * ) SI_UNIT ( $, .STERADIAN. ) SOLID_ANGLE_UNIT ( ) );
#63 =( NAMED_UNIT ( * ) PLANE_ANGLE_UNIT ( ) SI_UNIT ( $, .RADIAN. ) );
#64 =( LENGTH_UNIT ( ) NAMED_UNIT ( * ) SI_UNIT ( .MILLI., .METRE. ) );
#65 = SURFACE_STYLE_USAGE ( .BOTH. , #66 ) ;
#66 = SURFACE_SIDE_STYLE ('',( #30 ) ) ;
#67 = FILL_AREA_STYLE ('',( #68 ) ) ;
#68 = FILL_AREA_STYLE_COLOUR ( '', #36 ) ;
#69 =( NAMED_UNIT ( * ) SI_UNIT ( $, .STERADIAN. ) SOLID_ANGLE_UNIT ( ) );
#70 = DIRECTION ( 'NONE',  ( 1.000000000000000000, 0.0000000000000000000, 0.0000000000000000000 ) ) ;
#71 = DIRECTION ( 'NONE',  ( -0.0000000000000000000, -0.0000000000000000000, 1.000000000000000000 ) ) ;
#72 =( LENGTH_UNIT ( ) NAMED_UNIT ( * ) SI_UNIT ( .MILLI., .METRE. ) );
#73 =( NAMED_UNIT ( * ) PLANE_ANGLE_UNIT ( ) SI_UNIT ( $, .RADIAN. ) );
#74 = DIRECTION ( 'NONE',  ( 1.000000000000000000, 0.0000000000000000000, 0.0000000000000000000 ) ) ;
#75 = DIRECTION ( 'NONE',  ( -0.0000000000000000000, -0.0000000000000000000, 1.000000000000000000 ) ) ;
#76 = CARTESIAN_POINT ( 'NONE',  ( 0.0000000000000000000, 0.0000000000000000000, -1000.000000000000000 ) ) ;
#77 = DIRECTION ( 'NONE',  ( -0.0000000000000000000, -0.0000000000000000000, 1.000000000000000000 ) ) ;
#78 = CARTESIAN_POINT ( 'NONE',  ( -9.999999999999998200, 1.224646799147353100E-015, 18.26174999999999200 ) ) ;
#79 = CARTESIAN_POINT ( 'NONE',  ( 0.0000000000000000000, 0.0000000000000000000, 0.0000000000000000000 ) ) ;
#80 = DIRECTION ( 'NONE',  ( 1.000000000000000000, 0.0000000000000000000, 0.0000000000000000000 ) ) ;
#81 = DIRECTION ( 'NONE',  ( -0.0000000000000000000, -0.0000000000000000000, 1.000000000000000000 ) ) ;
#82 = CARTESIAN_POINT ( 'NONE',  ( 0.0000000000000000000, 0.0000000000000000000, -1000.000000000000000 ) ) ;
#83 = DIRECTION ( 'NONE',  ( -0.0000000000000000000, -0.0000000000000000000, 1.000000000000000000 ) ) ;
#84 = DIRECTION ( 'NONE',  ( 1.000000000000000000, 0.0000000000000000000, 0.0000000000000000000 ) ) ;
#85 = DIRECTION ( 'NONE',  ( -0.0000000000000000000, -0.0000000000000000000, 1.000000000000000000 ) ) ;
#86 = CARTESIAN_POINT ( 'NONE',  ( 0.0000000000000000000, 0.0000000000000000000, 0.0000000000000000000 ) ) ;
#87 = CARTESIAN_POINT ( 'NONE',  ( 9.999999999999998200, 0.0000000000000000000, 18.26174999999999200 ) ) ;
#88 = CARTESIAN_POINT ( 'NONE',  ( -9.999999999999998200, 1.224646799147353100E-015, 0.0000000000000000000 ) ) ;
#89 = CARTESIAN_POINT ( 'NONE',  ( -9.999999999999998200, 1.224646799147353100E-015, -1000.000000000000000 ) ) ;
#90 = CARTESIAN_POINT ( 'NONE',  ( 9.999999999999998200, 0.0000000000000000000, -1000.000000000000000 ) ) ;
#91 =( NAMED_UNIT ( * ) SI_UNIT ( $, .STERADIAN. ) SOLID_ANGLE_UNIT ( ) );
#92 =( NAMED_UNIT ( * ) PLANE_ANGLE_UNIT ( ) SI_UNIT ( $, .RADIAN. ) );
#93 =( LENGTH_UNIT ( ) NAMED_UNIT ( * ) SI_UNIT ( .MILLI., .METRE. ) );
#94 = SURFACE_STYLE_USAGE ( .BOTH. , #95 ) ;
#95 = SURFACE_SIDE_STYLE ('',( #5 ) ) ;
#96 = FILL_AREA_STYLE ('',( #99 ) ) ;
#97 = DIRECTION ( 'NONE',  ( -1.000000000000000000, 0.0000000000000000000, -0.0000000000000000000 ) ) ;
#98 = DIRECTION ( 'NONE',  ( 0.0000000000000000000, 0.0000000000000000000, -1.000000000000000000 ) ) ;
#99 = FILL_AREA_STYLE_COLOUR ( '', #3 ) ;
#100 = PLANE ( 'NONE',  #121 ) ;
#101 = CARTESIAN_POINT ( 'NONE',  ( 0.0000000000000000000, 9.999999999999998200, 0.0000000000000000000 ) ) ;
#102 = CARTESIAN_POINT ( 'NONE',  ( 0.0000000000000000000, 0.0000000000000000000, 18.26174999999999200 ) ) ;
#103 = DIRECTION ( 'NONE',  ( -0.0000000000000000000, -0.0000000000000000000, 1.000000000000000000 ) ) ;
#104 = DIRECTION ( 'NONE',  ( 1.000000000000000000, 0.0000000000000000000, 0.0000000000000000000 ) ) ;
#105 = CARTESIAN_POINT ( 'NONE',  ( 0.0000000000000000000, 0.0000000000000000000, 18.26174999999999200 ) ) ;
#106 = DIRECTION ( 'NONE',  ( 1.000000000000000000, 0.0000000000000000000, 0.0000000000000000000 ) ) ;
#107 = DIRECTION ( 'NONE',  ( 0.0000000000000000000, -0.0000000000000000000, 1.000000000000000000 ) ) ;
#108 = PLANE ( 'NONE',  #123 ) ;
#109 = VERTEX_POINT ( 'NONE', #116 ) ;
#110 = VERTEX_POINT ( 'NONE', #90 ) ;
#111 = VERTEX_POINT ( 'NONE', #89 ) ;
#112 = DIRECTION ( 'NONE',  ( 1.000000000000000000, 0.0000000000000000000, 0.0000000000000000000 ) ) ;
#113 = DIRECTION ( 'NONE',  ( -0.0000000000000000000, -0.0000000000000000000, 1.000000000000000000 ) ) ;
#114 = VERTEX_POINT ( 'NONE', #88 ) ;
#115 = CARTESIAN_POINT ( 'NONE',  ( 0.0000000000000000000, 9.999999999999998200, -1000.000000000000000 ) ) ;
#116 = CARTESIAN_POINT ( 'NONE',  ( 9.999999999999998200, 0.0000000000000000000, 0.0000000000000000000 ) ) ;
#117 = EDGE_CURVE ( 'NONE', #109, #114, #28, .T. ) ;
#118 = AXIS2_PLACEMENT_3D ( 'NONE', #82, #81, #80 ) ;
#119 = AXIS2_PLACEMENT_3D ( 'NONE', #61, #60, #59 ) ;
#120 = PRESENTATION_LAYER_ASSIGNMENT (  '', '', ( #130 ) ) ;
#121 = AXIS2_PLACEMENT_3D ( 'NONE', #101, #98, #97 ) ;
#122 = PRODUCT_RELATED_PRODUCT_CATEGORY ( 'part', '', ( #46 ) ) ;
#123 = AXIS2_PLACEMENT_3D ( 'NONE', #115, #107, #106 ) ;
#124 = PRODUCT_DEFINITION_FORMATION_WITH_SPECIFIED_SOURCE ( 'ANY', '', #46, .NOT_KNOWN. ) ;
#125 = MECHANICAL_DESIGN_GEOMETRIC_PRESENTATION_REPRESENTATION (  '', ( #130 ), #24 ) ;
#126 = AXIS2_PLACEMENT_3D ( 'NONE', #105, #113, #112 ) ;
#127 = AXIS2_PLACEMENT_3D ( 'NONE', #79, #71, #70 ) ;
#128 = EDGE_CURVE ( 'NONE', #110, #109, #27, .T. ) ;
#129 = EDGE_CURVE ( 'NONE', #111, #110, #29, .T. ) ;
#130 = STYLED_ITEM ( 'NONE', ( #22 ), #49 ) ;
#131 = AXIS2_PLACEMENT_3D ( 'NONE', #86, #85, #84 ) ;
#132 = PRESENTATION_LAYER_ASSIGNMENT (  '', '', ( #140 ) ) ;
#133 = EDGE_CURVE ( 'NONE', #111, #114, #26, .T. ) ;
#134 = MECHANICAL_DESIGN_GEOMETRIC_PRESENTATION_REPRESENTATION (  '', ( #140 ), #33 ) ;
#135 = AXIS2_PLACEMENT_3D ( 'NONE', #102, #103, #104 ) ;
#136 = EDGE_CURVE ( 'NONE', #110, #111, #31, .T. ) ;
#137 = AXIS2_PLACEMENT_3D ( 'NONE', #76, #75, #74 ) ;
#138 = PRODUCT_DEFINITION ( 'UNKNOWN', '', #124, #47 ) ;
#139 = EDGE_CURVE ( 'NONE', #114, #109, #32, .T. ) ;
#140 = STYLED_ITEM ( 'NONE', ( #35 ), #52 ) ;
ENDSEC;
END-ISO-10303-21;
