ISO-10303-21;
HEADER;
FILE_DESCRIPTION (( 'STEP AP214' ),
    '1' );
FILE_NAME ('CWE-025-_-h7-1000-ltk.step',
    '2020-09-09T10:23:49',
    ( '' ),
    ( '' ),
    'SwSTEP 2.0',
    'SolidWorks 2010',
    '' );
FILE_SCHEMA (( 'AUTOMOTIVE_DESIGN' ));
ENDSEC;

DATA;
#1 = APPLICATION_PROTOCOL_DEFINITION ( 'draft international standard', 'automotive_design', 1998, #2 ) ;
#2 = APPLICATION_CONTEXT ( 'automotive_design' ) ;
#3 = PRODUCT_CONTEXT ( 'NONE', #5, 'mechanical' ) ;
#4 = APPLICATION_PROTOCOL_DEFINITION ( 'draft international standard', 'automotive_design', 1998, #5 ) ;
#5 = APPLICATION_CONTEXT ( 'automotive_design' ) ;
#6 = DIRECTION ( 'NONE',  ( 1.000000000000000000, 0.0000000000000000000, 0.0000000000000000000 ) ) ;
#7 = DIRECTION ( 'NONE',  ( 0.0000000000000000000, 0.0000000000000000000, 1.000000000000000000 ) ) ;
#8 = CARTESIAN_POINT ( 'NONE',  ( 0.0000000000000000000, 0.0000000000000000000, 0.0000000000000000000 ) ) ;
#9 =( NAMED_UNIT ( * ) SI_UNIT ( $, .STERADIAN. ) SOLID_ANGLE_UNIT ( ) );
#10 =( NAMED_UNIT ( * ) PLANE_ANGLE_UNIT ( ) SI_UNIT ( $, .RADIAN. ) );
#11 =( LENGTH_UNIT ( ) NAMED_UNIT ( * ) SI_UNIT ( .MILLI., .METRE. ) );
#12 = SURFACE_STYLE_USAGE ( .BOTH. , #13 ) ;
#13 = SURFACE_SIDE_STYLE ('',( #84 ) ) ;
#14 = FILL_AREA_STYLE_COLOUR ( '', #80 ) ;
#15 =( NAMED_UNIT ( * ) SI_UNIT ( $, .STERADIAN. ) SOLID_ANGLE_UNIT ( ) );
#16 =( NAMED_UNIT ( * ) PLANE_ANGLE_UNIT ( ) SI_UNIT ( $, .RADIAN. ) );
#17 =( LENGTH_UNIT ( ) NAMED_UNIT ( * ) SI_UNIT ( .MILLI., .METRE. ) );
#18 = CARTESIAN_POINT ( 'NONE',  ( 12.50000000000000000, 0.0000000000000000000, -1000.000000000000000 ) ) ;
#19 = VERTEX_POINT ( 'NONE', #18 ) ;
#20 = DIRECTION ( 'NONE',  ( 1.000000000000000000, 0.0000000000000000000, 0.0000000000000000000 ) ) ;
#21 = DIRECTION ( 'NONE',  ( 0.0000000000000000000, -0.0000000000000000000, 1.000000000000000000 ) ) ;
#22 = CARTESIAN_POINT ( 'NONE',  ( 12.50000000000000000, 0.0000000000000000000, 0.0000000000000000000 ) ) ;
#23 = PLANE ( 'NONE',  #51 ) ;
#24 = CARTESIAN_POINT ( 'NONE',  ( 0.0000000000000000000, 12.50000000000000000, -1000.000000000000000 ) ) ;
#25 = DIRECTION ( 'NONE',  ( -0.0000000000000000000, -0.0000000000000000000, 1.000000000000000000 ) ) ;
#26 = CARTESIAN_POINT ( 'NONE',  ( 0.0000000000000000000, 0.0000000000000000000, 18.26174999999999200 ) ) ;
#27 = DIRECTION ( 'NONE',  ( -1.000000000000000000, 0.0000000000000000000, -0.0000000000000000000 ) ) ;
#28 = DIRECTION ( 'NONE',  ( 0.0000000000000000000, 0.0000000000000000000, -1.000000000000000000 ) ) ;
#29 = VERTEX_POINT ( 'NONE', #22 ) ;
#30 =( NAMED_UNIT ( * ) SI_UNIT ( $, .STERADIAN. ) SOLID_ANGLE_UNIT ( ) );
#31 =( NAMED_UNIT ( * ) PLANE_ANGLE_UNIT ( ) SI_UNIT ( $, .RADIAN. ) );
#32 =( LENGTH_UNIT ( ) NAMED_UNIT ( * ) SI_UNIT ( .MILLI., .METRE. ) );
#33 = SURFACE_STYLE_USAGE ( .BOTH. , #34 ) ;
#34 = SURFACE_SIDE_STYLE ('',( #68 ) ) ;
#35 = FILL_AREA_STYLE ('',( #45 ) ) ;
#36 = FILL_AREA_STYLE ('',( #14 ) ) ;
#37 = PLANE ( 'NONE',  #55 ) ;
#38 = DIRECTION ( 'NONE',  ( 1.000000000000000000, 0.0000000000000000000, 0.0000000000000000000 ) ) ;
#39 = DIRECTION ( 'NONE',  ( -0.0000000000000000000, -0.0000000000000000000, 1.000000000000000000 ) ) ;
#40 = CARTESIAN_POINT ( 'NONE',  ( 0.0000000000000000000, 12.50000000000000000, 0.0000000000000000000 ) ) ;
#41 = DIRECTION ( 'NONE',  ( 1.000000000000000000, 0.0000000000000000000, 0.0000000000000000000 ) ) ;
#42 = DIRECTION ( 'NONE',  ( 1.000000000000000000, 0.0000000000000000000, 0.0000000000000000000 ) ) ;
#43 = DIRECTION ( 'NONE',  ( -0.0000000000000000000, -0.0000000000000000000, 1.000000000000000000 ) ) ;
#44 = CARTESIAN_POINT ( 'NONE',  ( 0.0000000000000000000, 0.0000000000000000000, -1000.000000000000000 ) ) ;
#45 = FILL_AREA_STYLE_COLOUR ( '', #82 ) ;
#46 = CARTESIAN_POINT ( 'NONE',  ( 0.0000000000000000000, 0.0000000000000000000, 0.0000000000000000000 ) ) ;
#47 = MECHANICAL_DESIGN_GEOMETRIC_PRESENTATION_REPRESENTATION (  '', ( #60 ), #87 ) ;
#48 = STYLED_ITEM ( 'NONE', ( #65 ), #93 ) ;
#49 = EDGE_CURVE ( 'NONE', #29, #29, #71, .T. ) ;
#50 = PRESENTATION_LAYER_ASSIGNMENT (  '', '', ( #48 ) ) ;
#51 = AXIS2_PLACEMENT_3D ( 'NONE', #24, #21, #20 ) ;
#52 = MECHANICAL_DESIGN_GEOMETRIC_PRESENTATION_REPRESENTATION (  '', ( #48 ), #75 ) ;
#53 = PRODUCT_DEFINITION_FORMATION_WITH_SPECIFIED_SOURCE ( 'ANY', '', #91, .NOT_KNOWN. ) ;
#54 = AXIS2_PLACEMENT_3D ( 'NONE', #46, #43, #42 ) ;
#55 = AXIS2_PLACEMENT_3D ( 'NONE', #40, #28, #27 ) ;
#56 = EDGE_CURVE ( 'NONE', #19, #19, #72, .T. ) ;
#57 = PRODUCT_RELATED_PRODUCT_CATEGORY ( 'part', '', ( #91 ) ) ;
#58 = AXIS2_PLACEMENT_3D ( 'NONE', #8, #7, #6 ) ;
#59 = PRODUCT_DEFINITION ( 'UNKNOWN', '', #53, #96 ) ;
#60 = STYLED_ITEM ( 'NONE', ( #81 ), #94 ) ;
#61 = AXIS2_PLACEMENT_3D ( 'NONE', #44, #39, #38 ) ;
#62 = PRESENTATION_LAYER_ASSIGNMENT (  '', '', ( #60 ) ) ;
#63 = AXIS2_PLACEMENT_3D ( 'NONE', #26, #25, #41 ) ;
#64 = EDGE_LOOP ( 'NONE', ( #66 ) ) ;
#65 = PRESENTATION_STYLE_ASSIGNMENT (( #33 ) ) ;
#66 = ORIENTED_EDGE ( 'NONE', *, *, #56, .F. ) ;
#67 = EDGE_LOOP ( 'NONE', ( #69 ) ) ;
#68 = SURFACE_STYLE_FILL_AREA ( #35 ) ;
#69 = ORIENTED_EDGE ( 'NONE', *, *, #49, .F. ) ;
#70 = EDGE_LOOP ( 'NONE', ( #86 ) ) ;
#71 = CIRCLE ( 'NONE', #54, 12.50000000000000000 ) ;
#72 = CIRCLE ( 'NONE', #61, 12.50000000000000000 ) ;
#73 = FACE_OUTER_BOUND ( 'NONE', #83, .T. ) ;
#74 = CYLINDRICAL_SURFACE ( 'NONE', #63, 12.50000000000000000 ) ;
#75 =( GEOMETRIC_REPRESENTATION_CONTEXT ( 3 ) GLOBAL_UNCERTAINTY_ASSIGNED_CONTEXT ( ( #92 ) ) GLOBAL_UNIT_ASSIGNED_CONTEXT ( ( #32, #31, #30 ) ) REPRESENTATION_CONTEXT ( 'NONE', 'WORKASPACE' ) );
#76 = FACE_OUTER_BOUND ( 'NONE', #70, .T. ) ;
#77 = FACE_OUTER_BOUND ( 'NONE', #67, .T. ) ;
#78 = FACE_OUTER_BOUND ( 'NONE', #64, .T. ) ;
#79 =( GEOMETRIC_REPRESENTATION_CONTEXT ( 3 ) GLOBAL_UNCERTAINTY_ASSIGNED_CONTEXT ( ( #95 ) ) GLOBAL_UNIT_ASSIGNED_CONTEXT ( ( #17, #16, #15 ) ) REPRESENTATION_CONTEXT ( 'NONE', 'WORKASPACE' ) );
#80 = COLOUR_RGB ( '',0.7529411764705882200, 0.7529411764705882200, 0.7529411764705882200 ) ;
#81 = PRESENTATION_STYLE_ASSIGNMENT (( #12 ) ) ;
#82 = COLOUR_RGB ( '',0.7529411764705882200, 0.7529411764705882200, 0.7529411764705882200 ) ;
#83 = EDGE_LOOP ( 'NONE', ( #89 ) ) ;
#84 = SURFACE_STYLE_FILL_AREA ( #36 ) ;
#85 = CLOSED_SHELL ( 'NONE', ( #99, #100, #98 ) ) ;
#86 = ORIENTED_EDGE ( 'NONE', *, *, #56, .T. ) ;
#87 =( GEOMETRIC_REPRESENTATION_CONTEXT ( 3 ) GLOBAL_UNCERTAINTY_ASSIGNED_CONTEXT ( ( #90 ) ) GLOBAL_UNIT_ASSIGNED_CONTEXT ( ( #11, #10, #9 ) ) REPRESENTATION_CONTEXT ( 'NONE', 'WORKASPACE' ) );
#88 = SHAPE_DEFINITION_REPRESENTATION ( #97, #94 ) ;
#89 = ORIENTED_EDGE ( 'NONE', *, *, #49, .T. ) ;
#90 = UNCERTAINTY_MEASURE_WITH_UNIT (LENGTH_MEASURE( 1.000000000000000100E-005 ), #11, 'distance_accuracy_value', 'NONE');
#91 = PRODUCT ( 'CWE-025-_-h7-1000-ltk', 'CWE-025-_-h7-1000-ltk', '', ( #3 ) ) ;
#92 = UNCERTAINTY_MEASURE_WITH_UNIT (LENGTH_MEASURE( 1.000000000000000100E-005 ), #32, 'distance_accuracy_value', 'NONE');
#93 = MANIFOLD_SOLID_BREP ( 'body', #85 ) ;
#94 = ADVANCED_BREP_SHAPE_REPRESENTATION ( 'CWE-025-_-h7-1000-ltk', ( #93, #58 ), #79 ) ;
#95 = UNCERTAINTY_MEASURE_WITH_UNIT (LENGTH_MEASURE( 1.000000000000000100E-005 ), #17, 'distance_accuracy_value', 'NONE');
#96 = PRODUCT_DEFINITION_CONTEXT ( 'detailed design', #2, 'design' ) ;
#97 = PRODUCT_DEFINITION_SHAPE ( 'NONE', 'NONE',  #59 ) ;
#98 = ADVANCED_FACE ( 'NONE', ( #73 ), #37, .F. ) ;
#99 = ADVANCED_FACE ( 'NONE', ( #77, #76 ), #74, .T. ) ;
#100 = ADVANCED_FACE ( 'NONE', ( #78 ), #23, .F. ) ;
ENDSEC;
END-ISO-10303-21;
