ISO-10303-21;
HEADER;
FILE_DESCRIPTION (( 'STEP AP214' ),
    '1' );
FILE_NAME ('CWE-030-_-h7-1000-ltk.step',
    '2020-09-09T10:24:31',
    ( '' ),
    ( '' ),
    'SwSTEP 2.0',
    'SolidWorks 2010',
    '' );
FILE_SCHEMA (( 'AUTOMOTIVE_DESIGN' ));
ENDSEC;

DATA;
#1 = COLOUR_RGB ( '',0.7529411764705882200, 0.7529411764705882200, 0.7529411764705882200 ) ;
#2 = EDGE_LOOP ( 'NONE', ( #17, #41, #38, #39 ) ) ;
#3 = VECTOR ( 'NONE', #103, 1000.000000000000000 ) ;
#4 = FACE_OUTER_BOUND ( 'NONE', #11, .T. ) ;
#5 = VECTOR ( 'NONE', #75, 1000.000000000000000 ) ;
#6 = PRESENTATION_STYLE_ASSIGNMENT (( #86 ) ) ;
#7 = ORIENTED_EDGE ( 'NONE', *, *, #58, .T. ) ;
#8 = SURFACE_STYLE_FILL_AREA ( #88 ) ;
#9 = CLOSED_SHELL ( 'NONE', ( #137, #136, #138, #139 ) ) ;
#10 = ORIENTED_EDGE ( 'NONE', *, *, #51, .T. ) ;
#11 = EDGE_LOOP ( 'NONE', ( #37, #7, #13, #14 ) ) ;
#12 = EDGE_LOOP ( 'NONE', ( #15, #10 ) ) ;
#13 = ORIENTED_EDGE ( 'NONE', *, *, #59, .T. ) ;
#14 = ORIENTED_EDGE ( 'NONE', *, *, #51, .F. ) ;
#15 = ORIENTED_EDGE ( 'NONE', *, *, #69, .T. ) ;
#16 = ORIENTED_EDGE ( 'NONE', *, *, #62, .F. ) ;
#17 = ORIENTED_EDGE ( 'NONE', *, *, #62, .T. ) ;
#18 = ORIENTED_EDGE ( 'NONE', *, *, #58, .F. ) ;
#19 =( GEOMETRIC_REPRESENTATION_CONTEXT ( 3 ) GLOBAL_UNCERTAINTY_ASSIGNED_CONTEXT ( ( #46 ) ) GLOBAL_UNIT_ASSIGNED_CONTEXT ( ( #85, #84, #83 ) ) REPRESENTATION_CONTEXT ( 'NONE', 'WORKASPACE' ) );
#20 = FACE_OUTER_BOUND ( 'NONE', #2, .T. ) ;
#21 = CIRCLE ( 'NONE', #60, 15.00000000000000000 ) ;
#22 = LINE ( 'NONE', #92, #5 ) ;
#23 = CIRCLE ( 'NONE', #55, 15.00000000000000400 ) ;
#24 = LINE ( 'NONE', #106, #3 ) ;
#25 = CIRCLE ( 'NONE', #61, 15.00000000000000400 ) ;
#26 = FACE_OUTER_BOUND ( 'NONE', #12, .T. ) ;
#27 = CIRCLE ( 'NONE', #68, 15.00000000000000000 ) ;
#28 = CYLINDRICAL_SURFACE ( 'NONE', #54, 15.00000000000000200 ) ;
#29 = CYLINDRICAL_SURFACE ( 'NONE', #63, 15.00000000000000200 ) ;
#30 = FACE_OUTER_BOUND ( 'NONE', #33, .T. ) ;
#31 =( GEOMETRIC_REPRESENTATION_CONTEXT ( 3 ) GLOBAL_UNCERTAINTY_ASSIGNED_CONTEXT ( ( #43 ) ) GLOBAL_UNIT_ASSIGNED_CONTEXT ( ( #125, #126, #127 ) ) REPRESENTATION_CONTEXT ( 'NONE', 'WORKASPACE' ) );
#32 = SHAPE_DEFINITION_REPRESENTATION ( #45, #140 ) ;
#33 = EDGE_LOOP ( 'NONE', ( #16, #18 ) ) ;
#34 = SURFACE_STYLE_FILL_AREA ( #122 ) ;
#35 = COLOUR_RGB ( '',0.7529411764705882200, 0.7529411764705882200, 0.7529411764705882200 ) ;
#36 = PRESENTATION_STYLE_ASSIGNMENT (( #124 ) ) ;
#37 = ORIENTED_EDGE ( 'NONE', *, *, #72, .F. ) ;
#38 = ORIENTED_EDGE ( 'NONE', *, *, #69, .F. ) ;
#39 = ORIENTED_EDGE ( 'NONE', *, *, #59, .F. ) ;
#40 =( GEOMETRIC_REPRESENTATION_CONTEXT ( 3 ) GLOBAL_UNCERTAINTY_ASSIGNED_CONTEXT ( ( #48 ) ) GLOBAL_UNIT_ASSIGNED_CONTEXT ( ( #117, #118, #121 ) ) REPRESENTATION_CONTEXT ( 'NONE', 'WORKASPACE' ) );
#41 = ORIENTED_EDGE ( 'NONE', *, *, #72, .T. ) ;
#42 = PRODUCT ( 'CWE-030-_-h7-1000-ltk', 'CWE-030-_-h7-1000-ltk', '', ( #133 ) ) ;
#43 = UNCERTAINTY_MEASURE_WITH_UNIT (LENGTH_MEASURE( 1.000000000000000100E-005 ), #125, 'distance_accuracy_value', 'NONE');
#44 = PRODUCT_DEFINITION_CONTEXT ( 'detailed design', #134, 'design' ) ;
#45 = PRODUCT_DEFINITION_SHAPE ( 'NONE', 'NONE',  #67 ) ;
#46 = UNCERTAINTY_MEASURE_WITH_UNIT (LENGTH_MEASURE( 1.000000000000000100E-005 ), #85, 'distance_accuracy_value', 'NONE');
#47 = MANIFOLD_SOLID_BREP ( 'body', #9 ) ;
#48 = UNCERTAINTY_MEASURE_WITH_UNIT (LENGTH_MEASURE( 1.000000000000000100E-005 ), #117, 'distance_accuracy_value', 'NONE');
#49 = MECHANICAL_DESIGN_GEOMETRIC_PRESENTATION_REPRESENTATION (  '', ( #53 ), #19 ) ;
#50 = PRODUCT_RELATED_PRODUCT_CATEGORY ( 'part', '', ( #42 ) ) ;
#51 = EDGE_CURVE ( 'NONE', #94, #91, #21, .T. ) ;
#52 = PRESENTATION_LAYER_ASSIGNMENT (  '', '', ( #53 ) ) ;
#53 = STYLED_ITEM ( 'NONE', ( #6 ), #47 ) ;
#54 = AXIS2_PLACEMENT_3D ( 'NONE', #111, #108, #109 ) ;
#55 = AXIS2_PLACEMENT_3D ( 'NONE', #77, #78, #79 ) ;
#56 = PRESENTATION_LAYER_ASSIGNMENT (  '', '', ( #64 ) ) ;
#57 = PRODUCT_DEFINITION_FORMATION_WITH_SPECIFIED_SOURCE ( 'ANY', '', #42, .NOT_KNOWN. ) ;
#58 = EDGE_CURVE ( 'NONE', #89, #90, #23, .T. ) ;
#59 = EDGE_CURVE ( 'NONE', #90, #91, #22, .T. ) ;
#60 = AXIS2_PLACEMENT_3D ( 'NONE', #82, #81, #76 ) ;
#61 = AXIS2_PLACEMENT_3D ( 'NONE', #80, #101, #74 ) ;
#62 = EDGE_CURVE ( 'NONE', #90, #89, #25, .T. ) ;
#63 = AXIS2_PLACEMENT_3D ( 'NONE', #99, #98, #102 ) ;
#64 = STYLED_ITEM ( 'NONE', ( #36 ), #140 ) ;
#65 = AXIS2_PLACEMENT_3D ( 'NONE', #112, #115, #116 ) ;
#66 = MECHANICAL_DESIGN_GEOMETRIC_PRESENTATION_REPRESENTATION (  '', ( #64 ), #31 ) ;
#67 = PRODUCT_DEFINITION ( 'UNKNOWN', '', #57, #44 ) ;
#68 = AXIS2_PLACEMENT_3D ( 'NONE', #95, #104, #105 ) ;
#69 = EDGE_CURVE ( 'NONE', #91, #94, #27, .T. ) ;
#70 = AXIS2_PLACEMENT_3D ( 'NONE', #110, #119, #120 ) ;
#71 = AXIS2_PLACEMENT_3D ( 'NONE', #128, #129, #130 ) ;
#72 = EDGE_CURVE ( 'NONE', #89, #94, #24, .T. ) ;
#73 = CARTESIAN_POINT ( 'NONE',  ( -15.00000000000000500, 1.836970198721030400E-015, -1000.000000000000000 ) ) ;
#74 = DIRECTION ( 'NONE',  ( 1.000000000000000000, 0.0000000000000000000, 0.0000000000000000000 ) ) ;
#75 = DIRECTION ( 'NONE',  ( -0.0000000000000000000, -0.0000000000000000000, 1.000000000000000000 ) ) ;
#76 = DIRECTION ( 'NONE',  ( 1.000000000000000000, 0.0000000000000000000, 0.0000000000000000000 ) ) ;
#77 = CARTESIAN_POINT ( 'NONE',  ( 0.0000000000000000000, 0.0000000000000000000, -1000.000000000000000 ) ) ;
#78 = DIRECTION ( 'NONE',  ( -0.0000000000000000000, -0.0000000000000000000, 1.000000000000000000 ) ) ;
#79 = DIRECTION ( 'NONE',  ( 1.000000000000000000, 0.0000000000000000000, 0.0000000000000000000 ) ) ;
#80 = CARTESIAN_POINT ( 'NONE',  ( 0.0000000000000000000, 0.0000000000000000000, -1000.000000000000000 ) ) ;
#81 = DIRECTION ( 'NONE',  ( -0.0000000000000000000, -0.0000000000000000000, 1.000000000000000000 ) ) ;
#82 = CARTESIAN_POINT ( 'NONE',  ( 0.0000000000000000000, 0.0000000000000000000, 0.0000000000000000000 ) ) ;
#83 =( NAMED_UNIT ( * ) SI_UNIT ( $, .STERADIAN. ) SOLID_ANGLE_UNIT ( ) );
#84 =( NAMED_UNIT ( * ) PLANE_ANGLE_UNIT ( ) SI_UNIT ( $, .RADIAN. ) );
#85 =( LENGTH_UNIT ( ) NAMED_UNIT ( * ) SI_UNIT ( .MILLI., .METRE. ) );
#86 = SURFACE_STYLE_USAGE ( .BOTH. , #87 ) ;
#87 = SURFACE_SIDE_STYLE ('',( #8 ) ) ;
#88 = FILL_AREA_STYLE ('',( #93 ) ) ;
#89 = VERTEX_POINT ( 'NONE', #73 ) ;
#90 = VERTEX_POINT ( 'NONE', #100 ) ;
#91 = VERTEX_POINT ( 'NONE', #107 ) ;
#92 = CARTESIAN_POINT ( 'NONE',  ( 15.00000000000000200, 0.0000000000000000000, 18.26174999999999200 ) ) ;
#93 = FILL_AREA_STYLE_COLOUR ( '', #1 ) ;
#94 = VERTEX_POINT ( 'NONE', #96 ) ;
#95 = CARTESIAN_POINT ( 'NONE',  ( 0.0000000000000000000, 0.0000000000000000000, 0.0000000000000000000 ) ) ;
#96 = CARTESIAN_POINT ( 'NONE',  ( -15.00000000000000000, 1.836970198721030000E-015, 0.0000000000000000000 ) ) ;
#97 = PLANE ( 'NONE',  #70 ) ;
#98 = DIRECTION ( 'NONE',  ( -0.0000000000000000000, -0.0000000000000000000, 1.000000000000000000 ) ) ;
#99 = CARTESIAN_POINT ( 'NONE',  ( 0.0000000000000000000, 0.0000000000000000000, 18.26174999999999200 ) ) ;
#100 = CARTESIAN_POINT ( 'NONE',  ( 15.00000000000000400, 0.0000000000000000000, -1000.000000000000000 ) ) ;
#101 = DIRECTION ( 'NONE',  ( -0.0000000000000000000, -0.0000000000000000000, 1.000000000000000000 ) ) ;
#102 = DIRECTION ( 'NONE',  ( 1.000000000000000000, 0.0000000000000000000, 0.0000000000000000000 ) ) ;
#103 = DIRECTION ( 'NONE',  ( -0.0000000000000000000, -0.0000000000000000000, 1.000000000000000000 ) ) ;
#104 = DIRECTION ( 'NONE',  ( -0.0000000000000000000, -0.0000000000000000000, 1.000000000000000000 ) ) ;
#105 = DIRECTION ( 'NONE',  ( 1.000000000000000000, 0.0000000000000000000, 0.0000000000000000000 ) ) ;
#106 = CARTESIAN_POINT ( 'NONE',  ( -15.00000000000000200, 1.836970198721030000E-015, 18.26174999999999200 ) ) ;
#107 = CARTESIAN_POINT ( 'NONE',  ( 15.00000000000000000, 0.0000000000000000000, 0.0000000000000000000 ) ) ;
#108 = DIRECTION ( 'NONE',  ( -0.0000000000000000000, -0.0000000000000000000, 1.000000000000000000 ) ) ;
#109 = DIRECTION ( 'NONE',  ( 1.000000000000000000, 0.0000000000000000000, 0.0000000000000000000 ) ) ;
#110 = CARTESIAN_POINT ( 'NONE',  ( 0.0000000000000000000, 15.00000000000000000, 0.0000000000000000000 ) ) ;
#111 = CARTESIAN_POINT ( 'NONE',  ( 0.0000000000000000000, 0.0000000000000000000, 18.26174999999999200 ) ) ;
#112 = CARTESIAN_POINT ( 'NONE',  ( 0.0000000000000000000, 15.00000000000000400, -1000.000000000000000 ) ) ;
#113 = PLANE ( 'NONE',  #65 ) ;
#114 = FILL_AREA_STYLE_COLOUR ( '', #35 ) ;
#115 = DIRECTION ( 'NONE',  ( 0.0000000000000000000, -0.0000000000000000000, 1.000000000000000000 ) ) ;
#116 = DIRECTION ( 'NONE',  ( 1.000000000000000000, 0.0000000000000000000, 0.0000000000000000000 ) ) ;
#117 =( LENGTH_UNIT ( ) NAMED_UNIT ( * ) SI_UNIT ( .MILLI., .METRE. ) );
#118 =( NAMED_UNIT ( * ) PLANE_ANGLE_UNIT ( ) SI_UNIT ( $, .RADIAN. ) );
#119 = DIRECTION ( 'NONE',  ( 0.0000000000000000000, 0.0000000000000000000, -1.000000000000000000 ) ) ;
#120 = DIRECTION ( 'NONE',  ( -1.000000000000000000, 0.0000000000000000000, -0.0000000000000000000 ) ) ;
#121 =( NAMED_UNIT ( * ) SI_UNIT ( $, .STERADIAN. ) SOLID_ANGLE_UNIT ( ) );
#122 = FILL_AREA_STYLE ('',( #114 ) ) ;
#123 = SURFACE_SIDE_STYLE ('',( #34 ) ) ;
#124 = SURFACE_STYLE_USAGE ( .BOTH. , #123 ) ;
#125 =( LENGTH_UNIT ( ) NAMED_UNIT ( * ) SI_UNIT ( .MILLI., .METRE. ) );
#126 =( NAMED_UNIT ( * ) PLANE_ANGLE_UNIT ( ) SI_UNIT ( $, .RADIAN. ) );
#127 =( NAMED_UNIT ( * ) SI_UNIT ( $, .STERADIAN. ) SOLID_ANGLE_UNIT ( ) );
#128 = CARTESIAN_POINT ( 'NONE',  ( 0.0000000000000000000, 0.0000000000000000000, 0.0000000000000000000 ) ) ;
#129 = DIRECTION ( 'NONE',  ( 0.0000000000000000000, 0.0000000000000000000, 1.000000000000000000 ) ) ;
#130 = DIRECTION ( 'NONE',  ( 1.000000000000000000, 0.0000000000000000000, 0.0000000000000000000 ) ) ;
#131 = APPLICATION_CONTEXT ( 'automotive_design' ) ;
#132 = APPLICATION_PROTOCOL_DEFINITION ( 'draft international standard', 'automotive_design', 1998, #131 ) ;
#133 = PRODUCT_CONTEXT ( 'NONE', #131, 'mechanical' ) ;
#134 = APPLICATION_CONTEXT ( 'automotive_design' ) ;
#135 = APPLICATION_PROTOCOL_DEFINITION ( 'draft international standard', 'automotive_design', 1998, #134 ) ;
#136 = ADVANCED_FACE ( 'NONE', ( #4 ), #29, .T. ) ;
#137 = ADVANCED_FACE ( 'NONE', ( #20 ), #28, .T. ) ;
#138 = ADVANCED_FACE ( 'NONE', ( #30 ), #113, .F. ) ;
#139 = ADVANCED_FACE ( 'NONE', ( #26 ), #97, .F. ) ;
#140 = ADVANCED_BREP_SHAPE_REPRESENTATION ( 'CWE-030-_-h7-1000-ltk', ( #47, #71 ), #40 ) ;
ENDSEC;
END-ISO-10303-21;
