ISO-10303-21;
HEADER;
FILE_DESCRIPTION (( 'STEP AP214' ),
    '1' );
FILE_NAME ('CWE-040-_-h7-1000-ltk.step',
    '2020-09-09T10:25:29',
    ( '' ),
    ( '' ),
    'SwSTEP 2.0',
    'SolidWorks 2010',
    '' );
FILE_SCHEMA (( 'AUTOMOTIVE_DESIGN' ));
ENDSEC;

DATA;
#1 =( NAMED_UNIT ( * ) PLANE_ANGLE_UNIT ( ) SI_UNIT ( $, .RADIAN. ) );
#2 = DIRECTION ( 'NONE',  ( -0.0000000000000000000, -0.0000000000000000000, 1.000000000000000000 ) ) ;
#3 = FILL_AREA_STYLE ('',( #6 ) ) ;
#4 = DIRECTION ( 'NONE',  ( -0.0000000000000000000, -0.0000000000000000000, 1.000000000000000000 ) ) ;
#5 = DIRECTION ( 'NONE',  ( 1.000000000000000000, 0.0000000000000000000, 0.0000000000000000000 ) ) ;
#6 = FILL_AREA_STYLE_COLOUR ( '', #59 ) ;
#7 = FILL_AREA_STYLE ('',( #35 ) ) ;
#8 = DIRECTION ( 'NONE',  ( 1.000000000000000000, 0.0000000000000000000, 0.0000000000000000000 ) ) ;
#9 = CARTESIAN_POINT ( 'NONE',  ( 0.0000000000000000000, 0.0000000000000000000, 0.0000000000000000000 ) ) ;
#10 = DIRECTION ( 'NONE',  ( 1.000000000000000000, 0.0000000000000000000, 0.0000000000000000000 ) ) ;
#11 = DIRECTION ( 'NONE',  ( 0.0000000000000000000, -0.0000000000000000000, 1.000000000000000000 ) ) ;
#12 = CARTESIAN_POINT ( 'NONE',  ( 0.0000000000000000000, 0.0000000000000000000, -1000.000000000000000 ) ) ;
#13 = PLANE ( 'NONE',  #94 ) ;
#14 = CARTESIAN_POINT ( 'NONE',  ( 0.0000000000000000000, 20.00000000000000000, -1000.000000000000000 ) ) ;
#15 = DIRECTION ( 'NONE',  ( -0.0000000000000000000, -0.0000000000000000000, 1.000000000000000000 ) ) ;
#16 = CARTESIAN_POINT ( 'NONE',  ( 0.0000000000000000000, 0.0000000000000000000, 18.26174999999999200 ) ) ;
#17 = DIRECTION ( 'NONE',  ( -1.000000000000000000, 0.0000000000000000000, -0.0000000000000000000 ) ) ;
#18 = DIRECTION ( 'NONE',  ( 0.0000000000000000000, 0.0000000000000000000, -1.000000000000000000 ) ) ;
#19 = CARTESIAN_POINT ( 'NONE',  ( 0.0000000000000000000, 20.00000000000000000, 0.0000000000000000000 ) ) ;
#20 = DIRECTION ( 'NONE',  ( 1.000000000000000000, 0.0000000000000000000, 0.0000000000000000000 ) ) ;
#21 = PLANE ( 'NONE',  #77 ) ;
#22 =( NAMED_UNIT ( * ) SI_UNIT ( $, .STERADIAN. ) SOLID_ANGLE_UNIT ( ) );
#23 =( NAMED_UNIT ( * ) SI_UNIT ( $, .STERADIAN. ) SOLID_ANGLE_UNIT ( ) );
#24 =( NAMED_UNIT ( * ) PLANE_ANGLE_UNIT ( ) SI_UNIT ( $, .RADIAN. ) );
#25 = SURFACE_SIDE_STYLE ('',( #51 ) ) ;
#26 =( LENGTH_UNIT ( ) NAMED_UNIT ( * ) SI_UNIT ( .MILLI., .METRE. ) );
#27 = SURFACE_STYLE_USAGE ( .BOTH. , #25 ) ;
#28 =( LENGTH_UNIT ( ) NAMED_UNIT ( * ) SI_UNIT ( .MILLI., .METRE. ) );
#29 = VERTEX_POINT ( 'NONE', #31 ) ;
#30 = VERTEX_POINT ( 'NONE', #32 ) ;
#31 = CARTESIAN_POINT ( 'NONE',  ( 20.00000000000000000, 0.0000000000000000000, -1000.000000000000000 ) ) ;
#32 = CARTESIAN_POINT ( 'NONE',  ( 20.00000000000000000, 0.0000000000000000000, 0.0000000000000000000 ) ) ;
#33 = SURFACE_STYLE_USAGE ( .BOTH. , #34 ) ;
#34 = SURFACE_SIDE_STYLE ('',( #58 ) ) ;
#35 = FILL_AREA_STYLE_COLOUR ( '', #65 ) ;
#36 =( LENGTH_UNIT ( ) NAMED_UNIT ( * ) SI_UNIT ( .MILLI., .METRE. ) );
#37 =( NAMED_UNIT ( * ) PLANE_ANGLE_UNIT ( ) SI_UNIT ( $, .RADIAN. ) );
#38 =( NAMED_UNIT ( * ) SI_UNIT ( $, .STERADIAN. ) SOLID_ANGLE_UNIT ( ) );
#39 = CARTESIAN_POINT ( 'NONE',  ( 0.0000000000000000000, 0.0000000000000000000, 0.0000000000000000000 ) ) ;
#40 = DIRECTION ( 'NONE',  ( 0.0000000000000000000, 0.0000000000000000000, 1.000000000000000000 ) ) ;
#41 = DIRECTION ( 'NONE',  ( 1.000000000000000000, 0.0000000000000000000, 0.0000000000000000000 ) ) ;
#42 = APPLICATION_CONTEXT ( 'automotive_design' ) ;
#43 = APPLICATION_PROTOCOL_DEFINITION ( 'draft international standard', 'automotive_design', 1998, #42 ) ;
#44 = PRODUCT_CONTEXT ( 'NONE', #42, 'mechanical' ) ;
#45 = APPLICATION_CONTEXT ( 'automotive_design' ) ;
#46 = APPLICATION_PROTOCOL_DEFINITION ( 'draft international standard', 'automotive_design', 1998, #45 ) ;
#47 = PRODUCT ( 'CWE-040-_-h7-1000-ltk', 'CWE-040-_-h7-1000-ltk', '', ( #44 ) ) ;
#48 = EDGE_LOOP ( 'NONE', ( #55 ) ) ;
#49 = CIRCLE ( 'NONE', #95, 20.00000000000000000 ) ;
#50 = PRESENTATION_STYLE_ASSIGNMENT (( #27 ) ) ;
#51 = SURFACE_STYLE_FILL_AREA ( #3 ) ;
#52 = CIRCLE ( 'NONE', #81, 20.00000000000000000 ) ;
#53 = EDGE_LOOP ( 'NONE', ( #68 ) ) ;
#54 = EDGE_LOOP ( 'NONE', ( #73 ) ) ;
#55 = ORIENTED_EDGE ( 'NONE', *, *, #79, .T. ) ;
#56 = FACE_OUTER_BOUND ( 'NONE', #48, .T. ) ;
#57 = FACE_OUTER_BOUND ( 'NONE', #67, .T. ) ;
#58 = SURFACE_STYLE_FILL_AREA ( #7 ) ;
#59 = COLOUR_RGB ( '',0.7529411764705882200, 0.7529411764705882200, 0.7529411764705882200 ) ;
#60 = FACE_OUTER_BOUND ( 'NONE', #53, .T. ) ;
#61 = CYLINDRICAL_SURFACE ( 'NONE', #78, 20.00000000000000000 ) ;
#62 = FACE_OUTER_BOUND ( 'NONE', #54, .T. ) ;
#63 =( GEOMETRIC_REPRESENTATION_CONTEXT ( 3 ) GLOBAL_UNCERTAINTY_ASSIGNED_CONTEXT ( ( #86 ) ) GLOBAL_UNIT_ASSIGNED_CONTEXT ( ( #26, #1, #22 ) ) REPRESENTATION_CONTEXT ( 'NONE', 'WORKASPACE' ) );
#64 =( GEOMETRIC_REPRESENTATION_CONTEXT ( 3 ) GLOBAL_UNCERTAINTY_ASSIGNED_CONTEXT ( ( #88 ) ) GLOBAL_UNIT_ASSIGNED_CONTEXT ( ( #28, #24, #23 ) ) REPRESENTATION_CONTEXT ( 'NONE', 'WORKASPACE' ) );
#65 = COLOUR_RGB ( '',0.7529411764705882200, 0.7529411764705882200, 0.7529411764705882200 ) ;
#66 = PRESENTATION_STYLE_ASSIGNMENT (( #33 ) ) ;
#67 = EDGE_LOOP ( 'NONE', ( #69 ) ) ;
#68 = ORIENTED_EDGE ( 'NONE', *, *, #82, .F. ) ;
#69 = ORIENTED_EDGE ( 'NONE', *, *, #79, .F. ) ;
#70 = CLOSED_SHELL ( 'NONE', ( #75, #76, #74 ) ) ;
#71 =( GEOMETRIC_REPRESENTATION_CONTEXT ( 3 ) GLOBAL_UNCERTAINTY_ASSIGNED_CONTEXT ( ( #87 ) ) GLOBAL_UNIT_ASSIGNED_CONTEXT ( ( #36, #37, #38 ) ) REPRESENTATION_CONTEXT ( 'NONE', 'WORKASPACE' ) );
#72 = SHAPE_DEFINITION_REPRESENTATION ( #90, #85 ) ;
#73 = ORIENTED_EDGE ( 'NONE', *, *, #82, .T. ) ;
#74 = ADVANCED_FACE ( 'NONE', ( #56 ), #21, .F. ) ;
#75 = ADVANCED_FACE ( 'NONE', ( #57, #62 ), #61, .T. ) ;
#76 = ADVANCED_FACE ( 'NONE', ( #60 ), #13, .F. ) ;
#77 = AXIS2_PLACEMENT_3D ( 'NONE', #19, #18, #17 ) ;
#78 = AXIS2_PLACEMENT_3D ( 'NONE', #16, #15, #20 ) ;
#79 = EDGE_CURVE ( 'NONE', #30, #30, #52, .T. ) ;
#80 = PRESENTATION_LAYER_ASSIGNMENT (  '', '', ( #83 ) ) ;
#81 = AXIS2_PLACEMENT_3D ( 'NONE', #9, #4, #5 ) ;
#82 = EDGE_CURVE ( 'NONE', #29, #29, #49, .T. ) ;
#83 = STYLED_ITEM ( 'NONE', ( #50 ), #84 ) ;
#84 = MANIFOLD_SOLID_BREP ( 'body', #70 ) ;
#85 = ADVANCED_BREP_SHAPE_REPRESENTATION ( 'CWE-040-_-h7-1000-ltk', ( #84, #93 ), #64 ) ;
#86 = UNCERTAINTY_MEASURE_WITH_UNIT (LENGTH_MEASURE( 1.000000000000000100E-005 ), #26, 'distance_accuracy_value', 'NONE');
#87 = UNCERTAINTY_MEASURE_WITH_UNIT (LENGTH_MEASURE( 1.000000000000000100E-005 ), #36, 'distance_accuracy_value', 'NONE');
#88 = UNCERTAINTY_MEASURE_WITH_UNIT (LENGTH_MEASURE( 1.000000000000000100E-005 ), #28, 'distance_accuracy_value', 'NONE');
#89 = PRODUCT_DEFINITION_CONTEXT ( 'detailed design', #45, 'design' ) ;
#90 = PRODUCT_DEFINITION_SHAPE ( 'NONE', 'NONE',  #92 ) ;
#91 = MECHANICAL_DESIGN_GEOMETRIC_PRESENTATION_REPRESENTATION (  '', ( #83 ), #63 ) ;
#92 = PRODUCT_DEFINITION ( 'UNKNOWN', '', #99, #89 ) ;
#93 = AXIS2_PLACEMENT_3D ( 'NONE', #39, #40, #41 ) ;
#94 = AXIS2_PLACEMENT_3D ( 'NONE', #14, #11, #10 ) ;
#95 = AXIS2_PLACEMENT_3D ( 'NONE', #12, #2, #8 ) ;
#96 = PRESENTATION_LAYER_ASSIGNMENT (  '', '', ( #97 ) ) ;
#97 = STYLED_ITEM ( 'NONE', ( #66 ), #85 ) ;
#98 = PRODUCT_RELATED_PRODUCT_CATEGORY ( 'part', '', ( #47 ) ) ;
#99 = PRODUCT_DEFINITION_FORMATION_WITH_SPECIFIED_SOURCE ( 'ANY', '', #47, .NOT_KNOWN. ) ;
#100 = MECHANICAL_DESIGN_GEOMETRIC_PRESENTATION_REPRESENTATION (  '', ( #97 ), #71 ) ;
ENDSEC;
END-ISO-10303-21;
