ISO-10303-21;
HEADER;
FILE_DESCRIPTION (( 'STEP AP214' ),
    '1' );
FILE_NAME ('CWE-050-_-h7-1000-ltk.step',
    '2020-09-09T10:25:57',
    ( '' ),
    ( '' ),
    'SwSTEP 2.0',
    'SolidWorks 2010',
    '' );
FILE_SCHEMA (( 'AUTOMOTIVE_DESIGN' ));
ENDSEC;

DATA;
#1 = PRODUCT_RELATED_PRODUCT_CATEGORY ( 'part', '', ( #44 ) ) ;
#2 = AXIS2_PLACEMENT_3D ( 'NONE', #58, #57, #71 ) ;
#3 = AXIS2_PLACEMENT_3D ( 'NONE', #78, #79, #88 ) ;
#4 = PRODUCT_DEFINITION ( 'UNKNOWN', '', #7, #94 ) ;
#5 = STYLED_ITEM ( 'NONE', ( #36 ), #100 ) ;
#6 = EDGE_CURVE ( 'NONE', #74, #74, #29, .T. ) ;
#7 = PRODUCT_DEFINITION_FORMATION_WITH_SPECIFIED_SOURCE ( 'ANY', '', #44, .NOT_KNOWN. ) ;
#8 = PRESENTATION_LAYER_ASSIGNMENT (  '', '', ( #5 ) ) ;
#9 = STYLED_ITEM ( 'NONE', ( #18 ), #96 ) ;
#10 = EDGE_CURVE ( 'NONE', #62, #62, #31, .T. ) ;
#11 = PRESENTATION_LAYER_ASSIGNMENT (  '', '', ( #9 ) ) ;
#12 = AXIS2_PLACEMENT_3D ( 'NONE', #69, #64, #63 ) ;
#13 = AXIS2_PLACEMENT_3D ( 'NONE', #70, #68, #67 ) ;
#14 = MECHANICAL_DESIGN_GEOMETRIC_PRESENTATION_REPRESENTATION (  '', ( #9 ), #33 ) ;
#15 = MECHANICAL_DESIGN_GEOMETRIC_PRESENTATION_REPRESENTATION (  '', ( #5 ), #41 ) ;
#16 = AXIS2_PLACEMENT_3D ( 'NONE', #66, #60, #59 ) ;
#17 = AXIS2_PLACEMENT_3D ( 'NONE', #56, #53, #52 ) ;
#18 = PRESENTATION_STYLE_ASSIGNMENT (( #49 ) ) ;
#19 = ORIENTED_EDGE ( 'NONE', *, *, #6, .T. ) ;
#20 = SURFACE_STYLE_FILL_AREA ( #61 ) ;
#21 = SURFACE_STYLE_FILL_AREA ( #51 ) ;
#22 = FACE_OUTER_BOUND ( 'NONE', #43, .T. ) ;
#23 = ORIENTED_EDGE ( 'NONE', *, *, #6, .F. ) ;
#24 = ORIENTED_EDGE ( 'NONE', *, *, #10, .F. ) ;
#25 = EDGE_LOOP ( 'NONE', ( #19 ) ) ;
#26 = FACE_OUTER_BOUND ( 'NONE', #39, .T. ) ;
#27 = FACE_OUTER_BOUND ( 'NONE', #38, .T. ) ;
#28 = FACE_OUTER_BOUND ( 'NONE', #25, .T. ) ;
#29 = CIRCLE ( 'NONE', #13, 24.99999999999999600 ) ;
#30 = CYLINDRICAL_SURFACE ( 'NONE', #2, 25.00000000000000000 ) ;
#31 = CIRCLE ( 'NONE', #12, 25.00000000000000000 ) ;
#32 = COLOUR_RGB ( '',0.7529411764705882200, 0.7529411764705882200, 0.7529411764705882200 ) ;
#33 =( GEOMETRIC_REPRESENTATION_CONTEXT ( 3 ) GLOBAL_UNCERTAINTY_ASSIGNED_CONTEXT ( ( #98 ) ) GLOBAL_UNIT_ASSIGNED_CONTEXT ( ( #48, #72, #73 ) ) REPRESENTATION_CONTEXT ( 'NONE', 'WORKASPACE' ) );
#34 =( GEOMETRIC_REPRESENTATION_CONTEXT ( 3 ) GLOBAL_UNCERTAINTY_ASSIGNED_CONTEXT ( ( #97 ) ) GLOBAL_UNIT_ASSIGNED_CONTEXT ( ( #81, #83, #82 ) ) REPRESENTATION_CONTEXT ( 'NONE', 'WORKASPACE' ) );
#35 = COLOUR_RGB ( '',0.7529411764705882200, 0.7529411764705882200, 0.7529411764705882200 ) ;
#36 = PRESENTATION_STYLE_ASSIGNMENT (( #86 ) ) ;
#37 = ORIENTED_EDGE ( 'NONE', *, *, #10, .T. ) ;
#38 = EDGE_LOOP ( 'NONE', ( #24 ) ) ;
#39 = EDGE_LOOP ( 'NONE', ( #23 ) ) ;
#40 = CLOSED_SHELL ( 'NONE', ( #46, #45, #47 ) ) ;
#41 =( GEOMETRIC_REPRESENTATION_CONTEXT ( 3 ) GLOBAL_UNCERTAINTY_ASSIGNED_CONTEXT ( ( #99 ) ) GLOBAL_UNIT_ASSIGNED_CONTEXT ( ( #84, #80, #77 ) ) REPRESENTATION_CONTEXT ( 'NONE', 'WORKASPACE' ) );
#42 = SHAPE_DEFINITION_REPRESENTATION ( #95, #100 ) ;
#43 = EDGE_LOOP ( 'NONE', ( #37 ) ) ;
#44 = PRODUCT ( 'CWE-050-_-h7-1000-ltk', 'CWE-050-_-h7-1000-ltk', '', ( #91 ) ) ;
#45 = ADVANCED_FACE ( 'NONE', ( #26 ), #65, .F. ) ;
#46 = ADVANCED_FACE ( 'NONE', ( #27, #28 ), #30, .T. ) ;
#47 = ADVANCED_FACE ( 'NONE', ( #22 ), #55, .F. ) ;
#48 =( LENGTH_UNIT ( ) NAMED_UNIT ( * ) SI_UNIT ( .MILLI., .METRE. ) );
#49 = SURFACE_STYLE_USAGE ( .BOTH. , #50 ) ;
#50 = SURFACE_SIDE_STYLE ('',( #21 ) ) ;
#51 = FILL_AREA_STYLE ('',( #54 ) ) ;
#52 = DIRECTION ( 'NONE',  ( -1.000000000000000000, 0.0000000000000000000, -0.0000000000000000000 ) ) ;
#53 = DIRECTION ( 'NONE',  ( 0.0000000000000000000, 0.0000000000000000000, -1.000000000000000000 ) ) ;
#54 = FILL_AREA_STYLE_COLOUR ( '', #32 ) ;
#55 = PLANE ( 'NONE',  #17 ) ;
#56 = CARTESIAN_POINT ( 'NONE',  ( 0.0000000000000000000, 25.00000000000000000, 0.0000000000000000000 ) ) ;
#57 = DIRECTION ( 'NONE',  ( -0.0000000000000000000, -0.0000000000000000000, 1.000000000000000000 ) ) ;
#58 = CARTESIAN_POINT ( 'NONE',  ( 0.0000000000000000000, 0.0000000000000000000, 18.26174999999999200 ) ) ;
#59 = DIRECTION ( 'NONE',  ( 1.000000000000000000, 0.0000000000000000000, 0.0000000000000000000 ) ) ;
#60 = DIRECTION ( 'NONE',  ( 0.0000000000000000000, -0.0000000000000000000, 1.000000000000000000 ) ) ;
#61 = FILL_AREA_STYLE ('',( #85 ) ) ;
#62 = VERTEX_POINT ( 'NONE', #76 ) ;
#63 = DIRECTION ( 'NONE',  ( 1.000000000000000000, 0.0000000000000000000, 0.0000000000000000000 ) ) ;
#64 = DIRECTION ( 'NONE',  ( -0.0000000000000000000, -0.0000000000000000000, 1.000000000000000000 ) ) ;
#65 = PLANE ( 'NONE',  #16 ) ;
#66 = CARTESIAN_POINT ( 'NONE',  ( 0.0000000000000000000, 24.99999999999999600, -1000.000000000000000 ) ) ;
#67 = DIRECTION ( 'NONE',  ( 1.000000000000000000, 0.0000000000000000000, 0.0000000000000000000 ) ) ;
#68 = DIRECTION ( 'NONE',  ( -0.0000000000000000000, -0.0000000000000000000, 1.000000000000000000 ) ) ;
#69 = CARTESIAN_POINT ( 'NONE',  ( 0.0000000000000000000, 0.0000000000000000000, 0.0000000000000000000 ) ) ;
#70 = CARTESIAN_POINT ( 'NONE',  ( 0.0000000000000000000, 0.0000000000000000000, -1000.000000000000000 ) ) ;
#71 = DIRECTION ( 'NONE',  ( 1.000000000000000000, 0.0000000000000000000, 0.0000000000000000000 ) ) ;
#72 =( NAMED_UNIT ( * ) PLANE_ANGLE_UNIT ( ) SI_UNIT ( $, .RADIAN. ) );
#73 =( NAMED_UNIT ( * ) SI_UNIT ( $, .STERADIAN. ) SOLID_ANGLE_UNIT ( ) );
#74 = VERTEX_POINT ( 'NONE', #75 ) ;
#75 = CARTESIAN_POINT ( 'NONE',  ( 24.99999999999999600, 0.0000000000000000000, -1000.000000000000000 ) ) ;
#76 = CARTESIAN_POINT ( 'NONE',  ( 25.00000000000000000, 0.0000000000000000000, 0.0000000000000000000 ) ) ;
#77 =( NAMED_UNIT ( * ) SI_UNIT ( $, .STERADIAN. ) SOLID_ANGLE_UNIT ( ) );
#78 = CARTESIAN_POINT ( 'NONE',  ( 0.0000000000000000000, 0.0000000000000000000, 0.0000000000000000000 ) ) ;
#79 = DIRECTION ( 'NONE',  ( 0.0000000000000000000, 0.0000000000000000000, 1.000000000000000000 ) ) ;
#80 =( NAMED_UNIT ( * ) PLANE_ANGLE_UNIT ( ) SI_UNIT ( $, .RADIAN. ) );
#81 =( LENGTH_UNIT ( ) NAMED_UNIT ( * ) SI_UNIT ( .MILLI., .METRE. ) );
#82 =( NAMED_UNIT ( * ) SI_UNIT ( $, .STERADIAN. ) SOLID_ANGLE_UNIT ( ) );
#83 =( NAMED_UNIT ( * ) PLANE_ANGLE_UNIT ( ) SI_UNIT ( $, .RADIAN. ) );
#84 =( LENGTH_UNIT ( ) NAMED_UNIT ( * ) SI_UNIT ( .MILLI., .METRE. ) );
#85 = FILL_AREA_STYLE_COLOUR ( '', #35 ) ;
#86 = SURFACE_STYLE_USAGE ( .BOTH. , #87 ) ;
#87 = SURFACE_SIDE_STYLE ('',( #20 ) ) ;
#88 = DIRECTION ( 'NONE',  ( 1.000000000000000000, 0.0000000000000000000, 0.0000000000000000000 ) ) ;
#89 = APPLICATION_CONTEXT ( 'automotive_design' ) ;
#90 = APPLICATION_PROTOCOL_DEFINITION ( 'draft international standard', 'automotive_design', 1998, #89 ) ;
#91 = PRODUCT_CONTEXT ( 'NONE', #89, 'mechanical' ) ;
#92 = APPLICATION_CONTEXT ( 'automotive_design' ) ;
#93 = APPLICATION_PROTOCOL_DEFINITION ( 'draft international standard', 'automotive_design', 1998, #92 ) ;
#94 = PRODUCT_DEFINITION_CONTEXT ( 'detailed design', #92, 'design' ) ;
#95 = PRODUCT_DEFINITION_SHAPE ( 'NONE', 'NONE',  #4 ) ;
#96 = MANIFOLD_SOLID_BREP ( 'body', #40 ) ;
#97 = UNCERTAINTY_MEASURE_WITH_UNIT (LENGTH_MEASURE( 1.000000000000000100E-005 ), #81, 'distance_accuracy_value', 'NONE');
#98 = UNCERTAINTY_MEASURE_WITH_UNIT (LENGTH_MEASURE( 1.000000000000000100E-005 ), #48, 'distance_accuracy_value', 'NONE');
#99 = UNCERTAINTY_MEASURE_WITH_UNIT (LENGTH_MEASURE( 1.000000000000000100E-005 ), #84, 'distance_accuracy_value', 'NONE');
#100 = ADVANCED_BREP_SHAPE_REPRESENTATION ( 'CWE-050-_-h7-1000-ltk', ( #96, #3 ), #34 ) ;
ENDSEC;
END-ISO-10303-21;
