ISO-10303-21;
HEADER;
FILE_DESCRIPTION (( 'STEP AP214' ),
    '1' );
FILE_NAME ('CWE-060-_-h7-1000-ltk.step',
    '2020-09-09T10:26:28',
    ( '' ),
    ( '' ),
    'SwSTEP 2.0',
    'SolidWorks 2010',
    '' );
FILE_SCHEMA (( 'AUTOMOTIVE_DESIGN' ));
ENDSEC;

DATA;
#1 = PRODUCT_RELATED_PRODUCT_CATEGORY ( 'part', '', ( #91 ) ) ;
#2 = STYLED_ITEM ( 'NONE', ( #21 ), #93 ) ;
#3 = PRODUCT_DEFINITION ( 'UNKNOWN', '', #7, #99 ) ;
#4 = AXIS2_PLACEMENT_3D ( 'NONE', #83, #84, #85 ) ;
#5 = STYLED_ITEM ( 'NONE', ( #36 ), #94 ) ;
#6 = EDGE_CURVE ( 'NONE', #71, #71, #27, .T. ) ;
#7 = PRODUCT_DEFINITION_FORMATION_WITH_SPECIFIED_SOURCE ( 'ANY', '', #91, .NOT_KNOWN. ) ;
#8 = PRESENTATION_LAYER_ASSIGNMENT (  '', '', ( #5 ) ) ;
#9 = MECHANICAL_DESIGN_GEOMETRIC_PRESENTATION_REPRESENTATION (  '', ( #2 ), #31 ) ;
#10 = EDGE_CURVE ( 'NONE', #66, #66, #29, .T. ) ;
#11 = AXIS2_PLACEMENT_3D ( 'NONE', #56, #63, #64 ) ;
#12 = AXIS2_PLACEMENT_3D ( 'NONE', #69, #70, #49 ) ;
#13 = AXIS2_PLACEMENT_3D ( 'NONE', #47, #53, #52 ) ;
#14 = AXIS2_PLACEMENT_3D ( 'NONE', #45, #54, #55 ) ;
#15 = AXIS2_PLACEMENT_3D ( 'NONE', #62, #67, #68 ) ;
#16 = MECHANICAL_DESIGN_GEOMETRIC_PRESENTATION_REPRESENTATION (  '', ( #5 ), #41 ) ;
#17 = PRESENTATION_LAYER_ASSIGNMENT (  '', '', ( #2 ) ) ;
#18 = COLOUR_RGB ( '',0.7529411764705882200, 0.7529411764705882200, 0.7529411764705882200 ) ;
#19 = FACE_OUTER_BOUND ( 'NONE', #39, .T. ) ;
#20 = FACE_OUTER_BOUND ( 'NONE', #38, .T. ) ;
#21 = PRESENTATION_STYLE_ASSIGNMENT (( #61 ) ) ;
#22 = ORIENTED_EDGE ( 'NONE', *, *, #6, .F. ) ;
#23 = EDGE_LOOP ( 'NONE', ( #22 ) ) ;
#24 = ORIENTED_EDGE ( 'NONE', *, *, #6, .T. ) ;
#25 = SURFACE_STYLE_FILL_AREA ( #50 ) ;
#26 = ORIENTED_EDGE ( 'NONE', *, *, #10, .F. ) ;
#27 = CIRCLE ( 'NONE', #14, 30.00000000000000400 ) ;
#28 = CYLINDRICAL_SURFACE ( 'NONE', #12, 30.00000000000000000 ) ;
#29 = CIRCLE ( 'NONE', #13, 30.00000000000000000 ) ;
#30 = FACE_OUTER_BOUND ( 'NONE', #23, .T. ) ;
#31 =( GEOMETRIC_REPRESENTATION_CONTEXT ( 3 ) GLOBAL_UNCERTAINTY_ASSIGNED_CONTEXT ( ( #92 ) ) GLOBAL_UNIT_ASSIGNED_CONTEXT ( ( #60, #59, #58 ) ) REPRESENTATION_CONTEXT ( 'NONE', 'WORKASPACE' ) );
#32 = SURFACE_STYLE_FILL_AREA ( #65 ) ;
#33 = FACE_OUTER_BOUND ( 'NONE', #43, .T. ) ;
#34 =( GEOMETRIC_REPRESENTATION_CONTEXT ( 3 ) GLOBAL_UNCERTAINTY_ASSIGNED_CONTEXT ( ( #95 ) ) GLOBAL_UNIT_ASSIGNED_CONTEXT ( ( #74, #75, #76 ) ) REPRESENTATION_CONTEXT ( 'NONE', 'WORKASPACE' ) );
#35 = COLOUR_RGB ( '',0.7529411764705882200, 0.7529411764705882200, 0.7529411764705882200 ) ;
#36 = PRESENTATION_STYLE_ASSIGNMENT (( #79 ) ) ;
#37 = ORIENTED_EDGE ( 'NONE', *, *, #10, .T. ) ;
#38 = EDGE_LOOP ( 'NONE', ( #24 ) ) ;
#39 = EDGE_LOOP ( 'NONE', ( #26 ) ) ;
#40 = CLOSED_SHELL ( 'NONE', ( #98, #96, #97 ) ) ;
#41 =( GEOMETRIC_REPRESENTATION_CONTEXT ( 3 ) GLOBAL_UNCERTAINTY_ASSIGNED_CONTEXT ( ( #44 ) ) GLOBAL_UNIT_ASSIGNED_CONTEXT ( ( #80, #81, #82 ) ) REPRESENTATION_CONTEXT ( 'NONE', 'WORKASPACE' ) );
#42 = SHAPE_DEFINITION_REPRESENTATION ( #100, #94 ) ;
#43 = EDGE_LOOP ( 'NONE', ( #37 ) ) ;
#44 = UNCERTAINTY_MEASURE_WITH_UNIT (LENGTH_MEASURE( 1.000000000000000100E-005 ), #80, 'distance_accuracy_value', 'NONE');
#45 = CARTESIAN_POINT ( 'NONE',  ( 0.0000000000000000000, 0.0000000000000000000, -1000.000000000000000 ) ) ;
#46 = FILL_AREA_STYLE_COLOUR ( '', #18 ) ;
#47 = CARTESIAN_POINT ( 'NONE',  ( 0.0000000000000000000, 0.0000000000000000000, 0.0000000000000000000 ) ) ;
#48 = PLANE ( 'NONE',  #11 ) ;
#49 = DIRECTION ( 'NONE',  ( 1.000000000000000000, 0.0000000000000000000, 0.0000000000000000000 ) ) ;
#50 = FILL_AREA_STYLE ('',( #46 ) ) ;
#51 = SURFACE_SIDE_STYLE ('',( #25 ) ) ;
#52 = DIRECTION ( 'NONE',  ( 1.000000000000000000, 0.0000000000000000000, 0.0000000000000000000 ) ) ;
#53 = DIRECTION ( 'NONE',  ( -0.0000000000000000000, -0.0000000000000000000, 1.000000000000000000 ) ) ;
#54 = DIRECTION ( 'NONE',  ( -0.0000000000000000000, -0.0000000000000000000, 1.000000000000000000 ) ) ;
#55 = DIRECTION ( 'NONE',  ( 1.000000000000000000, 0.0000000000000000000, 0.0000000000000000000 ) ) ;
#56 = CARTESIAN_POINT ( 'NONE',  ( 0.0000000000000000000, 30.00000000000000400, -1000.000000000000000 ) ) ;
#57 = PLANE ( 'NONE',  #15 ) ;
#58 =( NAMED_UNIT ( * ) SI_UNIT ( $, .STERADIAN. ) SOLID_ANGLE_UNIT ( ) );
#59 =( NAMED_UNIT ( * ) PLANE_ANGLE_UNIT ( ) SI_UNIT ( $, .RADIAN. ) );
#60 =( LENGTH_UNIT ( ) NAMED_UNIT ( * ) SI_UNIT ( .MILLI., .METRE. ) );
#61 = SURFACE_STYLE_USAGE ( .BOTH. , #51 ) ;
#62 = CARTESIAN_POINT ( 'NONE',  ( 0.0000000000000000000, 30.00000000000000000, 0.0000000000000000000 ) ) ;
#63 = DIRECTION ( 'NONE',  ( 0.0000000000000000000, -0.0000000000000000000, 1.000000000000000000 ) ) ;
#64 = DIRECTION ( 'NONE',  ( 1.000000000000000000, 0.0000000000000000000, 0.0000000000000000000 ) ) ;
#65 = FILL_AREA_STYLE ('',( #77 ) ) ;
#66 = VERTEX_POINT ( 'NONE', #73 ) ;
#67 = DIRECTION ( 'NONE',  ( 0.0000000000000000000, 0.0000000000000000000, -1.000000000000000000 ) ) ;
#68 = DIRECTION ( 'NONE',  ( -1.000000000000000000, 0.0000000000000000000, -0.0000000000000000000 ) ) ;
#69 = CARTESIAN_POINT ( 'NONE',  ( 0.0000000000000000000, 0.0000000000000000000, 18.26174999999999200 ) ) ;
#70 = DIRECTION ( 'NONE',  ( -0.0000000000000000000, -0.0000000000000000000, 1.000000000000000000 ) ) ;
#71 = VERTEX_POINT ( 'NONE', #72 ) ;
#72 = CARTESIAN_POINT ( 'NONE',  ( 30.00000000000000400, 0.0000000000000000000, -1000.000000000000000 ) ) ;
#73 = CARTESIAN_POINT ( 'NONE',  ( 30.00000000000000000, 0.0000000000000000000, 0.0000000000000000000 ) ) ;
#74 =( LENGTH_UNIT ( ) NAMED_UNIT ( * ) SI_UNIT ( .MILLI., .METRE. ) );
#75 =( NAMED_UNIT ( * ) PLANE_ANGLE_UNIT ( ) SI_UNIT ( $, .RADIAN. ) );
#76 =( NAMED_UNIT ( * ) SI_UNIT ( $, .STERADIAN. ) SOLID_ANGLE_UNIT ( ) );
#77 = FILL_AREA_STYLE_COLOUR ( '', #35 ) ;
#78 = SURFACE_SIDE_STYLE ('',( #32 ) ) ;
#79 = SURFACE_STYLE_USAGE ( .BOTH. , #78 ) ;
#80 =( LENGTH_UNIT ( ) NAMED_UNIT ( * ) SI_UNIT ( .MILLI., .METRE. ) );
#81 =( NAMED_UNIT ( * ) PLANE_ANGLE_UNIT ( ) SI_UNIT ( $, .RADIAN. ) );
#82 =( NAMED_UNIT ( * ) SI_UNIT ( $, .STERADIAN. ) SOLID_ANGLE_UNIT ( ) );
#83 = CARTESIAN_POINT ( 'NONE',  ( 0.0000000000000000000, 0.0000000000000000000, 0.0000000000000000000 ) ) ;
#84 = DIRECTION ( 'NONE',  ( 0.0000000000000000000, 0.0000000000000000000, 1.000000000000000000 ) ) ;
#85 = DIRECTION ( 'NONE',  ( 1.000000000000000000, 0.0000000000000000000, 0.0000000000000000000 ) ) ;
#86 = APPLICATION_CONTEXT ( 'automotive_design' ) ;
#87 = APPLICATION_PROTOCOL_DEFINITION ( 'draft international standard', 'automotive_design', 1998, #86 ) ;
#88 = PRODUCT_CONTEXT ( 'NONE', #86, 'mechanical' ) ;
#89 = APPLICATION_CONTEXT ( 'automotive_design' ) ;
#90 = APPLICATION_PROTOCOL_DEFINITION ( 'draft international standard', 'automotive_design', 1998, #89 ) ;
#91 = PRODUCT ( 'CWE-060-_-h7-1000-ltk', 'CWE-060-_-h7-1000-ltk', '', ( #88 ) ) ;
#92 = UNCERTAINTY_MEASURE_WITH_UNIT (LENGTH_MEASURE( 1.000000000000000100E-005 ), #60, 'distance_accuracy_value', 'NONE');
#93 = MANIFOLD_SOLID_BREP ( 'body', #40 ) ;
#94 = ADVANCED_BREP_SHAPE_REPRESENTATION ( 'CWE-060-_-h7-1000-ltk', ( #93, #4 ), #34 ) ;
#95 = UNCERTAINTY_MEASURE_WITH_UNIT (LENGTH_MEASURE( 1.000000000000000100E-005 ), #74, 'distance_accuracy_value', 'NONE');
#96 = ADVANCED_FACE ( 'NONE', ( #30 ), #48, .F. ) ;
#97 = ADVANCED_FACE ( 'NONE', ( #33 ), #57, .F. ) ;
#98 = ADVANCED_FACE ( 'NONE', ( #19, #20 ), #28, .T. ) ;
#99 = PRODUCT_DEFINITION_CONTEXT ( 'detailed design', #89, 'design' ) ;
#100 = PRODUCT_DEFINITION_SHAPE ( 'NONE', 'NONE',  #3 ) ;
ENDSEC;
END-ISO-10303-21;
