ISO-10303-21;
HEADER;
FILE_DESCRIPTION (( 'STEP AP214' ),
    '1' );
FILE_NAME ('CWE-070-_-h7-1000-ltk.step',
    '2020-09-09T10:26:48',
    ( '' ),
    ( '' ),
    'SwSTEP 2.0',
    'SolidWorks 2010',
    '' );
FILE_SCHEMA (( 'AUTOMOTIVE_DESIGN' ));
ENDSEC;

DATA;
#1 = STYLED_ITEM ( 'NONE', ( #65 ), #97 ) ;
#2 = EDGE_CURVE ( 'NONE', #25, #25, #67, .T. ) ;
#3 = MECHANICAL_DESIGN_GEOMETRIC_PRESENTATION_REPRESENTATION (  '', ( #7 ), #75 ) ;
#4 = AXIS2_PLACEMENT_3D ( 'NONE', #55, #54, #53 ) ;
#5 = PRODUCT_DEFINITION_FORMATION_WITH_SPECIFIED_SOURCE ( 'ANY', '', #64, .NOT_KNOWN. ) ;
#6 = EDGE_CURVE ( 'NONE', #42, #42, #78, .T. ) ;
#7 = STYLED_ITEM ( 'NONE', ( #74 ), #96 ) ;
#8 = PRESENTATION_LAYER_ASSIGNMENT (  '', '', ( #7 ) ) ;
#9 = PRODUCT_RELATED_PRODUCT_CATEGORY ( 'part', '', ( #64 ) ) ;
#10 = PRESENTATION_LAYER_ASSIGNMENT (  '', '', ( #1 ) ) ;
#11 = PRODUCT_DEFINITION ( 'UNKNOWN', '', #5, #91 ) ;
#12 = AXIS2_PLACEMENT_3D ( 'NONE', #49, #44, #43 ) ;
#13 = AXIS2_PLACEMENT_3D ( 'NONE', #51, #48, #47 ) ;
#14 = MECHANICAL_DESIGN_GEOMETRIC_PRESENTATION_REPRESENTATION (  '', ( #1 ), #89 ) ;
#15 = AXIS2_PLACEMENT_3D ( 'NONE', #38, #37, #50 ) ;
#16 = AXIS2_PLACEMENT_3D ( 'NONE', #46, #40, #39 ) ;
#17 = AXIS2_PLACEMENT_3D ( 'NONE', #36, #33, #32 ) ;
#18 = FILL_AREA_STYLE_COLOUR ( '', #87 ) ;
#19 = SURFACE_STYLE_USAGE ( .BOTH. , #52 ) ;
#20 =( NAMED_UNIT ( * ) SI_UNIT ( $, .STERADIAN. ) SOLID_ANGLE_UNIT ( ) );
#21 =( NAMED_UNIT ( * ) PLANE_ANGLE_UNIT ( ) SI_UNIT ( $, .RADIAN. ) );
#22 =( LENGTH_UNIT ( ) NAMED_UNIT ( * ) SI_UNIT ( .MILLI., .METRE. ) );
#23 = CARTESIAN_POINT ( 'NONE',  ( 35.00000000000000000, 0.0000000000000000000, -1000.000000000000000 ) ) ;
#24 = CARTESIAN_POINT ( 'NONE',  ( 35.00000000000000700, 0.0000000000000000000, 0.0000000000000000000 ) ) ;
#25 = VERTEX_POINT ( 'NONE', #24 ) ;
#26 =( NAMED_UNIT ( * ) SI_UNIT ( $, .STERADIAN. ) SOLID_ANGLE_UNIT ( ) );
#27 =( NAMED_UNIT ( * ) PLANE_ANGLE_UNIT ( ) SI_UNIT ( $, .RADIAN. ) );
#28 =( LENGTH_UNIT ( ) NAMED_UNIT ( * ) SI_UNIT ( .MILLI., .METRE. ) );
#29 = SURFACE_STYLE_USAGE ( .BOTH. , #30 ) ;
#30 = SURFACE_SIDE_STYLE ('',( #85 ) ) ;
#31 = FILL_AREA_STYLE ('',( #34 ) ) ;
#32 = DIRECTION ( 'NONE',  ( 1.000000000000000000, 0.0000000000000000000, 0.0000000000000000000 ) ) ;
#33 = DIRECTION ( 'NONE',  ( 0.0000000000000000000, -0.0000000000000000000, 1.000000000000000000 ) ) ;
#34 = FILL_AREA_STYLE_COLOUR ( '', #68 ) ;
#35 = PLANE ( 'NONE',  #17 ) ;
#36 = CARTESIAN_POINT ( 'NONE',  ( 0.0000000000000000000, 35.00000000000000000, -1000.000000000000000 ) ) ;
#37 = DIRECTION ( 'NONE',  ( -0.0000000000000000000, -0.0000000000000000000, 1.000000000000000000 ) ) ;
#38 = CARTESIAN_POINT ( 'NONE',  ( 0.0000000000000000000, 0.0000000000000000000, 18.26174999999999200 ) ) ;
#39 = DIRECTION ( 'NONE',  ( -1.000000000000000000, 0.0000000000000000000, -0.0000000000000000000 ) ) ;
#40 = DIRECTION ( 'NONE',  ( 0.0000000000000000000, 0.0000000000000000000, -1.000000000000000000 ) ) ;
#41 = FILL_AREA_STYLE ('',( #18 ) ) ;
#42 = VERTEX_POINT ( 'NONE', #23 ) ;
#43 = DIRECTION ( 'NONE',  ( 1.000000000000000000, 0.0000000000000000000, 0.0000000000000000000 ) ) ;
#44 = DIRECTION ( 'NONE',  ( -0.0000000000000000000, -0.0000000000000000000, 1.000000000000000000 ) ) ;
#45 = PLANE ( 'NONE',  #16 ) ;
#46 = CARTESIAN_POINT ( 'NONE',  ( 0.0000000000000000000, 35.00000000000000700, 0.0000000000000000000 ) ) ;
#47 = DIRECTION ( 'NONE',  ( 1.000000000000000000, 0.0000000000000000000, 0.0000000000000000000 ) ) ;
#48 = DIRECTION ( 'NONE',  ( -0.0000000000000000000, -0.0000000000000000000, 1.000000000000000000 ) ) ;
#49 = CARTESIAN_POINT ( 'NONE',  ( 0.0000000000000000000, 0.0000000000000000000, -1000.000000000000000 ) ) ;
#50 = DIRECTION ( 'NONE',  ( 1.000000000000000000, 0.0000000000000000000, 0.0000000000000000000 ) ) ;
#51 = CARTESIAN_POINT ( 'NONE',  ( 0.0000000000000000000, 0.0000000000000000000, 0.0000000000000000000 ) ) ;
#52 = SURFACE_SIDE_STYLE ('',( #73 ) ) ;
#53 = DIRECTION ( 'NONE',  ( 1.000000000000000000, 0.0000000000000000000, 0.0000000000000000000 ) ) ;
#54 = DIRECTION ( 'NONE',  ( 0.0000000000000000000, 0.0000000000000000000, 1.000000000000000000 ) ) ;
#55 = CARTESIAN_POINT ( 'NONE',  ( 0.0000000000000000000, 0.0000000000000000000, 0.0000000000000000000 ) ) ;
#56 =( LENGTH_UNIT ( ) NAMED_UNIT ( * ) SI_UNIT ( .MILLI., .METRE. ) );
#57 =( NAMED_UNIT ( * ) PLANE_ANGLE_UNIT ( ) SI_UNIT ( $, .RADIAN. ) );
#58 =( NAMED_UNIT ( * ) SI_UNIT ( $, .STERADIAN. ) SOLID_ANGLE_UNIT ( ) );
#59 = PRODUCT_CONTEXT ( 'NONE', #61, 'mechanical' ) ;
#60 = APPLICATION_PROTOCOL_DEFINITION ( 'draft international standard', 'automotive_design', 1998, #61 ) ;
#61 = APPLICATION_CONTEXT ( 'automotive_design' ) ;
#62 = APPLICATION_CONTEXT ( 'automotive_design' ) ;
#63 = APPLICATION_PROTOCOL_DEFINITION ( 'draft international standard', 'automotive_design', 1998, #62 ) ;
#64 = PRODUCT ( 'CWE-070-_-h7-1000-ltk', 'CWE-070-_-h7-1000-ltk', '', ( #59 ) ) ;
#65 = PRESENTATION_STYLE_ASSIGNMENT (( #19 ) ) ;
#66 = EDGE_LOOP ( 'NONE', ( #88 ) ) ;
#67 = CIRCLE ( 'NONE', #13, 35.00000000000000700 ) ;
#68 = COLOUR_RGB ( '',0.7529411764705882200, 0.7529411764705882200, 0.7529411764705882200 ) ;
#69 = EDGE_LOOP ( 'NONE', ( #70 ) ) ;
#70 = ORIENTED_EDGE ( 'NONE', *, *, #2, .F. ) ;
#71 = FACE_OUTER_BOUND ( 'NONE', #69, .T. ) ;
#72 = EDGE_LOOP ( 'NONE', ( #79 ) ) ;
#73 = SURFACE_STYLE_FILL_AREA ( #41 ) ;
#74 = PRESENTATION_STYLE_ASSIGNMENT (( #29 ) ) ;
#75 =( GEOMETRIC_REPRESENTATION_CONTEXT ( 3 ) GLOBAL_UNCERTAINTY_ASSIGNED_CONTEXT ( ( #98 ) ) GLOBAL_UNIT_ASSIGNED_CONTEXT ( ( #28, #27, #26 ) ) REPRESENTATION_CONTEXT ( 'NONE', 'WORKASPACE' ) );
#76 = CYLINDRICAL_SURFACE ( 'NONE', #15, 35.00000000000000000 ) ;
#77 = FACE_OUTER_BOUND ( 'NONE', #66, .T. ) ;
#78 = CIRCLE ( 'NONE', #12, 35.00000000000000000 ) ;
#79 = ORIENTED_EDGE ( 'NONE', *, *, #6, .F. ) ;
#80 =( GEOMETRIC_REPRESENTATION_CONTEXT ( 3 ) GLOBAL_UNCERTAINTY_ASSIGNED_CONTEXT ( ( #100 ) ) GLOBAL_UNIT_ASSIGNED_CONTEXT ( ( #22, #21, #20 ) ) REPRESENTATION_CONTEXT ( 'NONE', 'WORKASPACE' ) );
#81 = FACE_OUTER_BOUND ( 'NONE', #82, .T. ) ;
#82 = EDGE_LOOP ( 'NONE', ( #86 ) ) ;
#83 = CLOSED_SHELL ( 'NONE', ( #94, #95, #93 ) ) ;
#84 = FACE_OUTER_BOUND ( 'NONE', #72, .T. ) ;
#85 = SURFACE_STYLE_FILL_AREA ( #31 ) ;
#86 = ORIENTED_EDGE ( 'NONE', *, *, #6, .T. ) ;
#87 = COLOUR_RGB ( '',0.7529411764705882200, 0.7529411764705882200, 0.7529411764705882200 ) ;
#88 = ORIENTED_EDGE ( 'NONE', *, *, #2, .T. ) ;
#89 =( GEOMETRIC_REPRESENTATION_CONTEXT ( 3 ) GLOBAL_UNCERTAINTY_ASSIGNED_CONTEXT ( ( #99 ) ) GLOBAL_UNIT_ASSIGNED_CONTEXT ( ( #56, #57, #58 ) ) REPRESENTATION_CONTEXT ( 'NONE', 'WORKASPACE' ) );
#90 = SHAPE_DEFINITION_REPRESENTATION ( #92, #97 ) ;
#91 = PRODUCT_DEFINITION_CONTEXT ( 'detailed design', #62, 'design' ) ;
#92 = PRODUCT_DEFINITION_SHAPE ( 'NONE', 'NONE',  #11 ) ;
#93 = ADVANCED_FACE ( 'NONE', ( #77 ), #45, .F. ) ;
#94 = ADVANCED_FACE ( 'NONE', ( #71, #81 ), #76, .T. ) ;
#95 = ADVANCED_FACE ( 'NONE', ( #84 ), #35, .F. ) ;
#96 = MANIFOLD_SOLID_BREP ( 'body', #83 ) ;
#97 = ADVANCED_BREP_SHAPE_REPRESENTATION ( 'CWE-070-_-h7-1000-ltk', ( #96, #4 ), #80 ) ;
#98 = UNCERTAINTY_MEASURE_WITH_UNIT (LENGTH_MEASURE( 1.000000000000000100E-005 ), #28, 'distance_accuracy_value', 'NONE');
#99 = UNCERTAINTY_MEASURE_WITH_UNIT (LENGTH_MEASURE( 1.000000000000000100E-005 ), #56, 'distance_accuracy_value', 'NONE');
#100 = UNCERTAINTY_MEASURE_WITH_UNIT (LENGTH_MEASURE( 1.000000000000000100E-005 ), #22, 'distance_accuracy_value', 'NONE');
ENDSEC;
END-ISO-10303-21;
