ISO-10303-21;
HEADER;
FILE_DESCRIPTION (( 'STEP AP214' ),
    '1' );
FILE_NAME ('CWE-080-_-h7-1000-ltk.step',
    '2020-09-09T10:27:19',
    ( '' ),
    ( '' ),
    'SwSTEP 2.0',
    'SolidWorks 2010',
    '' );
FILE_SCHEMA (( 'AUTOMOTIVE_DESIGN' ));
ENDSEC;

DATA;
#1 = PRODUCT ( 'CWE-080-_-h7-1000-ltk', 'CWE-080-_-h7-1000-ltk', '', ( #11 ) ) ;
#2 = PRODUCT_DEFINITION_CONTEXT ( 'detailed design', #10, 'design' ) ;
#3 = PRODUCT_DEFINITION_SHAPE ( 'NONE', 'NONE',  #78 ) ;
#4 = UNCERTAINTY_MEASURE_WITH_UNIT (LENGTH_MEASURE( 1.000000000000000100E-005 ), #60, 'distance_accuracy_value', 'NONE');
#5 = MANIFOLD_SOLID_BREP ( 'body', #133 ) ;
#6 = UNCERTAINTY_MEASURE_WITH_UNIT (LENGTH_MEASURE( 1.000000000000000100E-005 ), #19, 'distance_accuracy_value', 'NONE');
#7 = ADVANCED_BREP_SHAPE_REPRESENTATION ( 'CWE-080-_-h7-1000-ltk', ( #5, #93 ), #135 ) ;
#8 = UNCERTAINTY_MEASURE_WITH_UNIT (LENGTH_MEASURE( 1.000000000000000100E-005 ), #29, 'distance_accuracy_value', 'NONE');
#9 = APPLICATION_PROTOCOL_DEFINITION ( 'draft international standard', 'automotive_design', 1998, #10 ) ;
#10 = APPLICATION_CONTEXT ( 'automotive_design' ) ;
#11 = PRODUCT_CONTEXT ( 'NONE', #13, 'mechanical' ) ;
#12 = APPLICATION_PROTOCOL_DEFINITION ( 'draft international standard', 'automotive_design', 1998, #13 ) ;
#13 = APPLICATION_CONTEXT ( 'automotive_design' ) ;
#14 = DIRECTION ( 'NONE',  ( 1.000000000000000000, 0.0000000000000000000, 0.0000000000000000000 ) ) ;
#15 = DIRECTION ( 'NONE',  ( 0.0000000000000000000, 0.0000000000000000000, 1.000000000000000000 ) ) ;
#16 = CARTESIAN_POINT ( 'NONE',  ( 0.0000000000000000000, 0.0000000000000000000, 0.0000000000000000000 ) ) ;
#17 =( NAMED_UNIT ( * ) SI_UNIT ( $, .STERADIAN. ) SOLID_ANGLE_UNIT ( ) );
#18 =( NAMED_UNIT ( * ) PLANE_ANGLE_UNIT ( ) SI_UNIT ( $, .RADIAN. ) );
#19 =( LENGTH_UNIT ( ) NAMED_UNIT ( * ) SI_UNIT ( .MILLI., .METRE. ) );
#20 = SURFACE_STYLE_USAGE ( .BOTH. , #21 ) ;
#21 = SURFACE_SIDE_STYLE ('',( #130 ) ) ;
#22 = FILL_AREA_STYLE ('',( #23 ) ) ;
#23 = FILL_AREA_STYLE_COLOUR ( '', #131 ) ;
#24 =( NAMED_UNIT ( * ) SI_UNIT ( $, .STERADIAN. ) SOLID_ANGLE_UNIT ( ) );
#25 =( NAMED_UNIT ( * ) PLANE_ANGLE_UNIT ( ) SI_UNIT ( $, .RADIAN. ) );
#26 = CARTESIAN_POINT ( 'NONE',  ( 0.0000000000000000000, 0.0000000000000000000, 18.26174999999999200 ) ) ;
#27 = DIRECTION ( 'NONE',  ( 1.000000000000000000, 0.0000000000000000000, 0.0000000000000000000 ) ) ;
#28 = DIRECTION ( 'NONE',  ( 0.0000000000000000000, -0.0000000000000000000, 1.000000000000000000 ) ) ;
#29 =( LENGTH_UNIT ( ) NAMED_UNIT ( * ) SI_UNIT ( .MILLI., .METRE. ) );
#30 = PLANE ( 'NONE',  #82 ) ;
#31 = CARTESIAN_POINT ( 'NONE',  ( 0.0000000000000000000, 39.99999999999999300, -1000.000000000000000 ) ) ;
#32 = CARTESIAN_POINT ( 'NONE',  ( 0.0000000000000000000, 0.0000000000000000000, 18.26174999999999200 ) ) ;
#33 = DIRECTION ( 'NONE',  ( 1.000000000000000000, 0.0000000000000000000, 0.0000000000000000000 ) ) ;
#34 = DIRECTION ( 'NONE',  ( -1.000000000000000000, 0.0000000000000000000, -0.0000000000000000000 ) ) ;
#35 = DIRECTION ( 'NONE',  ( 0.0000000000000000000, 0.0000000000000000000, -1.000000000000000000 ) ) ;
#36 = PLANE ( 'NONE',  #83 ) ;
#37 = DIRECTION ( 'NONE',  ( -0.0000000000000000000, -0.0000000000000000000, 1.000000000000000000 ) ) ;
#38 = DIRECTION ( 'NONE',  ( 1.000000000000000000, 0.0000000000000000000, 0.0000000000000000000 ) ) ;
#39 = DIRECTION ( 'NONE',  ( -0.0000000000000000000, -0.0000000000000000000, 1.000000000000000000 ) ) ;
#40 = DIRECTION ( 'NONE',  ( 1.000000000000000000, 0.0000000000000000000, 0.0000000000000000000 ) ) ;
#41 = DIRECTION ( 'NONE',  ( -0.0000000000000000000, -0.0000000000000000000, 1.000000000000000000 ) ) ;
#42 = DIRECTION ( 'NONE',  ( 1.000000000000000000, 0.0000000000000000000, 0.0000000000000000000 ) ) ;
#43 = DIRECTION ( 'NONE',  ( -0.0000000000000000000, -0.0000000000000000000, 1.000000000000000000 ) ) ;
#44 = CARTESIAN_POINT ( 'NONE',  ( 0.0000000000000000000, 40.00000000000000000, 0.0000000000000000000 ) ) ;
#45 = DIRECTION ( 'NONE',  ( -0.0000000000000000000, -0.0000000000000000000, 1.000000000000000000 ) ) ;
#46 = CARTESIAN_POINT ( 'NONE',  ( 0.0000000000000000000, 0.0000000000000000000, -1000.000000000000000 ) ) ;
#47 = DIRECTION ( 'NONE',  ( 1.000000000000000000, 0.0000000000000000000, 0.0000000000000000000 ) ) ;
#48 = DIRECTION ( 'NONE',  ( -0.0000000000000000000, -0.0000000000000000000, 1.000000000000000000 ) ) ;
#49 = CARTESIAN_POINT ( 'NONE',  ( 0.0000000000000000000, 0.0000000000000000000, 0.0000000000000000000 ) ) ;
#50 = DIRECTION ( 'NONE',  ( -0.0000000000000000000, -0.0000000000000000000, 1.000000000000000000 ) ) ;
#51 = CARTESIAN_POINT ( 'NONE',  ( -39.99999999999999300, 4.898587196589412200E-015, 18.26174999999999200 ) ) ;
#52 = CARTESIAN_POINT ( 'NONE',  ( 0.0000000000000000000, 0.0000000000000000000, 0.0000000000000000000 ) ) ;
#53 = DIRECTION ( 'NONE',  ( 1.000000000000000000, 0.0000000000000000000, 0.0000000000000000000 ) ) ;
#54 = DIRECTION ( 'NONE',  ( -0.0000000000000000000, -0.0000000000000000000, 1.000000000000000000 ) ) ;
#55 = CARTESIAN_POINT ( 'NONE',  ( 0.0000000000000000000, 0.0000000000000000000, -1000.000000000000000 ) ) ;
#56 = CARTESIAN_POINT ( 'NONE',  ( 39.99999999999999300, 0.0000000000000000000, 18.26174999999999200 ) ) ;
#57 = CARTESIAN_POINT ( 'NONE',  ( -40.00000000000000000, 4.898587196589413000E-015, 0.0000000000000000000 ) ) ;
#58 =( NAMED_UNIT ( * ) SI_UNIT ( $, .STERADIAN. ) SOLID_ANGLE_UNIT ( ) );
#59 =( NAMED_UNIT ( * ) PLANE_ANGLE_UNIT ( ) SI_UNIT ( $, .RADIAN. ) );
#60 =( LENGTH_UNIT ( ) NAMED_UNIT ( * ) SI_UNIT ( .MILLI., .METRE. ) );
#61 = SURFACE_STYLE_USAGE ( .BOTH. , #62 ) ;
#62 = SURFACE_SIDE_STYLE ('',( #100 ) ) ;
#63 = FILL_AREA_STYLE ('',( #71 ) ) ;
#64 = VERTEX_POINT ( 'NONE', #67 ) ;
#65 = VERTEX_POINT ( 'NONE', #68 ) ;
#66 = VERTEX_POINT ( 'NONE', #57 ) ;
#67 = CARTESIAN_POINT ( 'NONE',  ( -39.99999999999999300, 4.898587196589412200E-015, -1000.000000000000000 ) ) ;
#68 = CARTESIAN_POINT ( 'NONE',  ( 39.99999999999999300, 0.0000000000000000000, -1000.000000000000000 ) ) ;
#69 = VERTEX_POINT ( 'NONE', #70 ) ;
#70 = CARTESIAN_POINT ( 'NONE',  ( 40.00000000000000000, 0.0000000000000000000, 0.0000000000000000000 ) ) ;
#71 = FILL_AREA_STYLE_COLOUR ( '', #101 ) ;
#72 = AXIS2_PLACEMENT_3D ( 'NONE', #46, #43, #42 ) ;
#73 = EDGE_CURVE ( 'NONE', #65, #64, #117, .T. ) ;
#74 = EDGE_CURVE ( 'NONE', #65, #69, #116, .T. ) ;
#75 = PRODUCT_DEFINITION_FORMATION_WITH_SPECIFIED_SOURCE ( 'ANY', '', #1, .NOT_KNOWN. ) ;
#76 = MECHANICAL_DESIGN_GEOMETRIC_PRESENTATION_REPRESENTATION (  '', ( #79 ), #127 ) ;
#77 = PRESENTATION_LAYER_ASSIGNMENT (  '', '', ( #90 ) ) ;
#78 = PRODUCT_DEFINITION ( 'UNKNOWN', '', #75, #2 ) ;
#79 = STYLED_ITEM ( 'NONE', ( #132 ), #7 ) ;
#80 = MECHANICAL_DESIGN_GEOMETRIC_PRESENTATION_REPRESENTATION (  '', ( #90 ), #113 ) ;
#81 = AXIS2_PLACEMENT_3D ( 'NONE', #49, #48, #47 ) ;
#82 = AXIS2_PLACEMENT_3D ( 'NONE', #31, #28, #27 ) ;
#83 = AXIS2_PLACEMENT_3D ( 'NONE', #44, #35, #34 ) ;
#84 = EDGE_CURVE ( 'NONE', #66, #69, #119, .T. ) ;
#85 = EDGE_CURVE ( 'NONE', #64, #66, #118, .T. ) ;
#86 = AXIS2_PLACEMENT_3D ( 'NONE', #55, #54, #53 ) ;
#87 = EDGE_CURVE ( 'NONE', #64, #65, #122, .T. ) ;
#88 = PRESENTATION_LAYER_ASSIGNMENT (  '', '', ( #79 ) ) ;
#89 = AXIS2_PLACEMENT_3D ( 'NONE', #52, #39, #38 ) ;
#90 = STYLED_ITEM ( 'NONE', ( #98 ), #5 ) ;
#91 = AXIS2_PLACEMENT_3D ( 'NONE', #26, #41, #33 ) ;
#92 = PRODUCT_RELATED_PRODUCT_CATEGORY ( 'part', '', ( #1 ) ) ;
#93 = AXIS2_PLACEMENT_3D ( 'NONE', #16, #15, #14 ) ;
#94 = EDGE_CURVE ( 'NONE', #69, #66, #124, .T. ) ;
#95 = AXIS2_PLACEMENT_3D ( 'NONE', #32, #37, #40 ) ;
#96 = ORIENTED_EDGE ( 'NONE', *, *, #74, .F. ) ;
#97 = ORIENTED_EDGE ( 'NONE', *, *, #85, .T. ) ;
#98 = PRESENTATION_STYLE_ASSIGNMENT (( #61 ) ) ;
#99 = EDGE_LOOP ( 'NONE', ( #129, #97, #102, #96 ) ) ;
#100 = SURFACE_STYLE_FILL_AREA ( #63 ) ;
#101 = COLOUR_RGB ( '',0.7529411764705882200, 0.7529411764705882200, 0.7529411764705882200 ) ;
#102 = ORIENTED_EDGE ( 'NONE', *, *, #94, .F. ) ;
#103 = EDGE_LOOP ( 'NONE', ( #109, #106 ) ) ;
#104 = VECTOR ( 'NONE', #45, 1000.000000000000000 ) ;
#105 = ORIENTED_EDGE ( 'NONE', *, *, #85, .F. ) ;
#106 = ORIENTED_EDGE ( 'NONE', *, *, #87, .F. ) ;
#107 = ORIENTED_EDGE ( 'NONE', *, *, #84, .F. ) ;
#108 = ORIENTED_EDGE ( 'NONE', *, *, #84, .T. ) ;
#109 = ORIENTED_EDGE ( 'NONE', *, *, #73, .F. ) ;
#110 = ORIENTED_EDGE ( 'NONE', *, *, #94, .T. ) ;
#111 = ORIENTED_EDGE ( 'NONE', *, *, #87, .T. ) ;
#112 = ORIENTED_EDGE ( 'NONE', *, *, #74, .T. ) ;
#113 =( GEOMETRIC_REPRESENTATION_CONTEXT ( 3 ) GLOBAL_UNCERTAINTY_ASSIGNED_CONTEXT ( ( #4 ) ) GLOBAL_UNIT_ASSIGNED_CONTEXT ( ( #60, #59, #58 ) ) REPRESENTATION_CONTEXT ( 'NONE', 'WORKASPACE' ) );
#114 = CYLINDRICAL_SURFACE ( 'NONE', #95, 39.99999999999999300 ) ;
#115 = VECTOR ( 'NONE', #50, 1000.000000000000000 ) ;
#116 = LINE ( 'NONE', #56, #115 ) ;
#117 = CIRCLE ( 'NONE', #86, 39.99999999999999300 ) ;
#118 = LINE ( 'NONE', #51, #104 ) ;
#119 = CIRCLE ( 'NONE', #81, 40.00000000000000000 ) ;
#120 = FACE_OUTER_BOUND ( 'NONE', #103, .T. ) ;
#121 = FACE_OUTER_BOUND ( 'NONE', #134, .T. ) ;
#122 = CIRCLE ( 'NONE', #72, 39.99999999999999300 ) ;
#123 = FACE_OUTER_BOUND ( 'NONE', #136, .T. ) ;
#124 = CIRCLE ( 'NONE', #89, 40.00000000000000000 ) ;
#125 = FACE_OUTER_BOUND ( 'NONE', #99, .T. ) ;
#126 = CYLINDRICAL_SURFACE ( 'NONE', #91, 39.99999999999999300 ) ;
#127 =( GEOMETRIC_REPRESENTATION_CONTEXT ( 3 ) GLOBAL_UNCERTAINTY_ASSIGNED_CONTEXT ( ( #6 ) ) GLOBAL_UNIT_ASSIGNED_CONTEXT ( ( #19, #18, #17 ) ) REPRESENTATION_CONTEXT ( 'NONE', 'WORKASPACE' ) );
#128 = SHAPE_DEFINITION_REPRESENTATION ( #3, #7 ) ;
#129 = ORIENTED_EDGE ( 'NONE', *, *, #73, .T. ) ;
#130 = SURFACE_STYLE_FILL_AREA ( #22 ) ;
#131 = COLOUR_RGB ( '',0.7529411764705882200, 0.7529411764705882200, 0.7529411764705882200 ) ;
#132 = PRESENTATION_STYLE_ASSIGNMENT (( #20 ) ) ;
#133 = CLOSED_SHELL ( 'NONE', ( #138, #140, #139, #137 ) ) ;
#134 = EDGE_LOOP ( 'NONE', ( #110, #108 ) ) ;
#135 =( GEOMETRIC_REPRESENTATION_CONTEXT ( 3 ) GLOBAL_UNCERTAINTY_ASSIGNED_CONTEXT ( ( #8 ) ) GLOBAL_UNIT_ASSIGNED_CONTEXT ( ( #29, #25, #24 ) ) REPRESENTATION_CONTEXT ( 'NONE', 'WORKASPACE' ) );
#136 = EDGE_LOOP ( 'NONE', ( #105, #111, #112, #107 ) ) ;
#137 = ADVANCED_FACE ( 'NONE', ( #121 ), #36, .F. ) ;
#138 = ADVANCED_FACE ( 'NONE', ( #125 ), #114, .T. ) ;
#139 = ADVANCED_FACE ( 'NONE', ( #120 ), #30, .F. ) ;
#140 = ADVANCED_FACE ( 'NONE', ( #123 ), #126, .T. ) ;
ENDSEC;
END-ISO-10303-21;
